ISO-10303-21;
HEADER;
FILE_DESCRIPTION (( 'STEP AP214' ),
    '1' );
FILE_NAME ('LEDVANCE_Panel_PFM_gen3_1200x300.STEP',
    '2022-01-26T10:45:55',
    ( '' ),
    ( '' ),
    'SwSTEP 2.0',
    'SolidWorks 2020',
    '' );
FILE_SCHEMA (( 'AUTOMOTIVE_DESIGN' ));
ENDSEC;

DATA;
#1 = VECTOR ( 'NONE', #89, 1000.000000000000000 ) ;
#2 = FILL_AREA_STYLE_COLOUR ( '', #245 ) ;
#3 = ORIENTED_EDGE ( 'NONE', *, *, #287, .F. ) ;
#4 = ADVANCED_FACE ( 'NONE', ( #175 ), #150, .T. ) ;
#5 = ADVANCED_BREP_SHAPE_REPRESENTATION ( 'LEDVANCE_Panel_PFM_gen3_1200x300', ( #210, #67 ), #276 ) ;
#6 = PLANE ( 'NONE',  #161 ) ;
#7 = DIRECTION ( 'NONE',  ( 0.0000000000000000000, -1.000000000000000000, 0.0000000000000000000 ) ) ;
#8 = CARTESIAN_POINT ( 'NONE',  ( -597.4999999999929514, 147.4999999999914166, 8.999999999998131273 ) ) ;
#9 = EDGE_LOOP ( 'NONE', ( #300, #17, #271, #177 ) ) ;
#10 = LINE ( 'NONE', #69, #41 ) ;
#11 = FACE_BOUND ( 'NONE', #234, .T. ) ;
#12 = SURFACE_STYLE_FILL_AREA ( #113 ) ;
#13 = EDGE_CURVE ( 'NONE', #217, #28, #202, .T. ) ;
#14 = CARTESIAN_POINT ( 'NONE',  ( -577.5000000000000000, -127.5000000000046043, 8.999999999998131273 ) ) ;
#15 = PRODUCT_DEFINITION_FORMATION_WITH_SPECIFIED_SOURCE ( 'ANY', '', #143, .NOT_KNOWN. ) ;
#16 = FACE_OUTER_BOUND ( 'NONE', #339, .T. ) ;
#17 = ORIENTED_EDGE ( 'NONE', *, *, #219, .F. ) ;
#18 = DIRECTION ( 'NONE',  ( 2.654086101221550238E-16, -1.000000000000000000, -3.230520426330605024E-15 ) ) ;
#19 = DIRECTION ( 'NONE',  ( 0.0000000000000000000, 5.639932965094730736E-15, -1.000000000000000000 ) ) ;
#20 = CARTESIAN_POINT ( 'NONE',  ( 577.5000000000000000, -127.5000000000046043, 8.999999999997719158 ) ) ;
#21 = DIRECTION ( 'NONE',  ( 1.000000000000000000, 2.654086101221550238E-16, 1.496886769447917064E-30 ) ) ;
#22 = CARTESIAN_POINT ( 'NONE',  ( -577.5000000000000000, 127.4999999999953957, 8.999999999998131273 ) ) ;
#23 = DIRECTION ( 'NONE',  ( 0.0000000000000000000, 5.639932965094730736E-15, -1.000000000000000000 ) ) ;
#24 = VECTOR ( 'NONE', #94, 1000.000000000000000 ) ;
#25 = ORIENTED_EDGE ( 'NONE', *, *, #333, .F. ) ;
#26 = CARTESIAN_POINT ( 'NONE',  ( -597.4999999999929514, 147.4999999999914166, -1.867823245124239890E-12 ) ) ;
#27 = EDGE_LOOP ( 'NONE', ( #324, #122, #64, #275 ) ) ;
#28 = VERTEX_POINT ( 'NONE', #220 ) ;
#29 = EDGE_CURVE ( 'NONE', #251, #62, #222, .T. ) ;
#30 = CARTESIAN_POINT ( 'NONE',  ( -597.4999999999929514, -147.5000000000084128, 8.999999999998131273 ) ) ;
#31 = DIRECTION ( 'NONE',  ( -2.294210019699985308E-16, 1.000000000000000000, 0.0000000000000000000 ) ) ;
#32 = CARTESIAN_POINT ( 'NONE',  ( 0.0000000000000000000, 0.0000000000000000000, 0.0000000000000000000 ) ) ;
#33 = PRESENTATION_LAYER_ASSIGNMENT (  '', '', ( #59 ) ) ;
#34 = CARTESIAN_POINT ( 'NONE',  ( -577.5000000000000000, -127.5000000000046043, 8.999999999998131273 ) ) ;
#35 = EDGE_CURVE ( 'NONE', #49, #217, #254, .T. ) ;
#36 = LINE ( 'NONE', #96, #262 ) ;
#37 = VERTEX_POINT ( 'NONE', #225 ) ;
#38 = SURFACE_SIDE_STYLE ('',( #279 ) ) ;
#39 = ORIENTED_EDGE ( 'NONE', *, *, #35, .F. ) ;
#40 = DIRECTION ( 'NONE',  ( -1.000000000000000000, 0.0000000000000000000, 0.0000000000000000000 ) ) ;
#41 = VECTOR ( 'NONE', #207, 1000.000000000000000 ) ;
#42 = EDGE_CURVE ( 'NONE', #44, #200, #326, .T. ) ;
#43 = DIRECTION ( 'NONE',  ( 0.0000000000000000000, 0.0000000000000000000, -1.000000000000000000 ) ) ;
#44 = VERTEX_POINT ( 'NONE', #298 ) ;
#45 =( NAMED_UNIT ( * ) SI_UNIT ( $, .STERADIAN. ) SOLID_ANGLE_UNIT ( ) );
#46 = ORIENTED_EDGE ( 'NONE', *, *, #129, .F. ) ;
#47 = LINE ( 'NONE', #140, #128 ) ;
#48 = EDGE_CURVE ( 'NONE', #310, #332, #147, .T. ) ;
#49 = VERTEX_POINT ( 'NONE', #173 ) ;
#50 = DIRECTION ( 'NONE',  ( 0.0000000000000000000, 0.0000000000000000000, -1.000000000000000000 ) ) ;
#51 =( NAMED_UNIT ( * ) PLANE_ANGLE_UNIT ( ) SI_UNIT ( $, .RADIAN. ) );
#52 = CARTESIAN_POINT ( 'NONE',  ( 597.5000000000000000, 147.4999999999914166, 8.999999999998131273 ) ) ;
#53 = EDGE_CURVE ( 'NONE', #77, #310, #273, .T. ) ;
#54 = CARTESIAN_POINT ( 'NONE',  ( 577.5000000000000000, 127.4999999999955946, 5.999999999997980282 ) ) ;
#55 = FACE_OUTER_BOUND ( 'NONE', #126, .T. ) ;
#56 = PRESENTATION_STYLE_ASSIGNMENT (( #87 ) ) ;
#57 = CARTESIAN_POINT ( 'NONE',  ( 597.5000000000000000, 147.4999999999914166, 8.999999999998131273 ) ) ;
#58 = DIRECTION ( 'NONE',  ( 0.0000000000000000000, 0.0000000000000000000, 1.000000000000000000 ) ) ;
#59 = STYLED_ITEM ( 'NONE', ( #343 ), #210 ) ;
#60 = EDGE_CURVE ( 'NONE', #251, #198, #118, .T. ) ;
#61 = UNCERTAINTY_MEASURE_WITH_UNIT (LENGTH_MEASURE( 1.000000000000000082E-05 ), #322, 'distance_accuracy_value', 'NONE');
#62 = VERTEX_POINT ( 'NONE', #292 ) ;
#63 = ORIENTED_EDGE ( 'NONE', *, *, #149, .T. ) ;
#64 = ORIENTED_EDGE ( 'NONE', *, *, #53, .F. ) ;
#65 = ADVANCED_FACE ( 'NONE', ( #55 ), #6, .T. ) ;
#66 = DIRECTION ( 'NONE',  ( 0.0000000000000000000, 0.0000000000000000000, -1.000000000000000000 ) ) ;
#67 = AXIS2_PLACEMENT_3D ( 'NONE', #32, #139, #311 ) ;
#68 = APPLICATION_CONTEXT ( 'automotive_design' ) ;
#69 = CARTESIAN_POINT ( 'NONE',  ( 577.5000000000000000, 127.4999999999953957, 8.999999999998131273 ) ) ;
#70 = LINE ( 'NONE', #179, #174 ) ;
#71 = ORIENTED_EDGE ( 'NONE', *, *, #48, .F. ) ;
#72 = DIRECTION ( 'NONE',  ( 1.000000000000000000, 0.0000000000000000000, 0.0000000000000000000 ) ) ;
#73 = CARTESIAN_POINT ( 'NONE',  ( -577.5000000000000000, -127.5000000000046043, 5.999999999997149835 ) ) ;
#74 = VERTEX_POINT ( 'NONE', #34 ) ;
#75 = VECTOR ( 'NONE', #31, 1000.000000000000000 ) ;
#76 = CARTESIAN_POINT ( 'NONE',  ( -577.5000000000000000, 127.4999999999953957, 8.999999999998539835 ) ) ;
#77 = VERTEX_POINT ( 'NONE', #158 ) ;
#78 = CARTESIAN_POINT ( 'NONE',  ( -577.5000000000000000, -127.5000000000046043, 5.999999999997149835 ) ) ;
#79 = AXIS2_PLACEMENT_3D ( 'NONE', #138, #290, #50 ) ;
#80 = SHAPE_DEFINITION_REPRESENTATION ( #84, #5 ) ;
#81 = ORIENTED_EDGE ( 'NONE', *, *, #274, .T. ) ;
#82 = APPLICATION_PROTOCOL_DEFINITION ( 'draft international standard', 'automotive_design', 1998, #68 ) ;
#83 = CARTESIAN_POINT ( 'NONE',  ( -597.4999999999929514, 147.4999999999914166, -1.867823245124239890E-12 ) ) ;
#84 = PRODUCT_DEFINITION_SHAPE ( 'NONE', 'NONE',  #185 ) ;
#85 = FACE_OUTER_BOUND ( 'NONE', #307, .T. ) ;
#86 = DIRECTION ( 'NONE',  ( 0.0000000000000000000, 1.000000000000000000, 0.0000000000000000000 ) ) ;
#87 = SURFACE_STYLE_USAGE ( .BOTH. , #249 ) ;
#88 = ORIENTED_EDGE ( 'NONE', *, *, #247, .T. ) ;
#89 = DIRECTION ( 'NONE',  ( 1.000000000000000000, 0.0000000000000000000, 0.0000000000000000000 ) ) ;
#90 = ORIENTED_EDGE ( 'NONE', *, *, #267, .F. ) ;
#91 = ORIENTED_EDGE ( 'NONE', *, *, #60, .F. ) ;
#92 = VECTOR ( 'NONE', #342, 1000.000000000000000 ) ;
#93 = VECTOR ( 'NONE', #132, 1000.000000000000000 ) ;
#94 = DIRECTION ( 'NONE',  ( 1.000000000000000000, 0.0000000000000000000, 0.0000000000000000000 ) ) ;
#95 = EDGE_CURVE ( 'NONE', #62, #37, #10, .T. ) ;
#96 = CARTESIAN_POINT ( 'NONE',  ( -577.5000000000000000, 127.4999999999955946, 5.999999999997980282 ) ) ;
#97 = LINE ( 'NONE', #20, #230 ) ;
#98 = VECTOR ( 'NONE', #268, 1000.000000000000000 ) ;
#99 = ORIENTED_EDGE ( 'NONE', *, *, #121, .T. ) ;
#100 = FACE_OUTER_BOUND ( 'NONE', #27, .T. ) ;
#101 = DIRECTION ( 'NONE',  ( 0.0000000000000000000, 0.0000000000000000000, 1.000000000000000000 ) ) ;
#102 = ADVANCED_FACE ( 'NONE', ( #130 ), #125, .F. ) ;
#103 = DIRECTION ( 'NONE',  ( 1.000000000000000000, 0.0000000000000000000, 0.0000000000000000000 ) ) ;
#104 = ORIENTED_EDGE ( 'NONE', *, *, #308, .T. ) ;
#105 = VECTOR ( 'NONE', #189, 1000.000000000000000 ) ;
#106 = PLANE ( 'NONE',  #79 ) ;
#107 = VERTEX_POINT ( 'NONE', #73 ) ;
#108 = CARTESIAN_POINT ( 'NONE',  ( 577.5000000000000000, -127.5000000000046043, 8.999999999997719158 ) ) ;
#109 = VECTOR ( 'NONE', #164, 1000.000000000000000 ) ;
#110 = FACE_OUTER_BOUND ( 'NONE', #296, .T. ) ;
#111 = VECTOR ( 'NONE', #228, 1000.000000000000000 ) ;
#112 = ADVANCED_FACE ( 'NONE', ( #16 ), #282, .F. ) ;
#113 = FILL_AREA_STYLE ('',( #2 ) ) ;
#114 = DIRECTION ( 'NONE',  ( 0.0000000000000000000, 5.639932965094730736E-15, -1.000000000000000000 ) ) ;
#115 = CARTESIAN_POINT ( 'NONE',  ( -577.5000000000000000, 127.4999999999953957, 8.999999999998539835 ) ) ;
#116 = EDGE_CURVE ( 'NONE', #184, #335, #70, .T. ) ;
#117 = EDGE_LOOP ( 'NONE', ( #223, #136, #294, #133 ) ) ;
#118 = LINE ( 'NONE', #115, #131 ) ;
#119 = DIRECTION ( 'NONE',  ( 0.0000000000000000000, 0.0000000000000000000, -1.000000000000000000 ) ) ;
#120 =( GEOMETRIC_REPRESENTATION_CONTEXT ( 3 ) GLOBAL_UNCERTAINTY_ASSIGNED_CONTEXT ( ( #313 ) ) GLOBAL_UNIT_ASSIGNED_CONTEXT ( ( #181, #51, #299 ) ) REPRESENTATION_CONTEXT ( 'NONE', 'WORKASPACE' ) );
#121 = EDGE_CURVE ( 'NONE', #37, #74, #155, .T. ) ;
#122 = ORIENTED_EDGE ( 'NONE', *, *, #167, .F. ) ;
#123 = VECTOR ( 'NONE', #58, 1000.000000000000000 ) ;
#124 = DIRECTION ( 'NONE',  ( 0.0000000000000000000, 1.000000000000000000, 3.230520426330605024E-15 ) ) ;
#125 = PLANE ( 'NONE',  #297 ) ;
#126 = EDGE_LOOP ( 'NONE', ( #25, #182, #71, #329 ) ) ;
#127 = FACE_OUTER_BOUND ( 'NONE', #337, .T. ) ;
#128 = VECTOR ( 'NONE', #166, 1000.000000000000000 ) ;
#129 = EDGE_CURVE ( 'NONE', #198, #107, #36, .T. ) ;
#130 = FACE_OUTER_BOUND ( 'NONE', #208, .T. ) ;
#131 = VECTOR ( 'NONE', #114, 1000.000000000000000 ) ;
#132 = DIRECTION ( 'NONE',  ( -2.654086101221550238E-16, 1.000000000000000000, 0.0000000000000000000 ) ) ;
#133 = ORIENTED_EDGE ( 'NONE', *, *, #35, .T. ) ;
#134 = LINE ( 'NONE', #316, #172 ) ;
#135 = EDGE_CURVE ( 'NONE', #200, #217, #186, .T. ) ;
#136 = ORIENTED_EDGE ( 'NONE', *, *, #241, .F. ) ;
#137 = MECHANICAL_DESIGN_GEOMETRIC_PRESENTATION_REPRESENTATION (  '', ( #59 ), #204 ) ;
#138 = CARTESIAN_POINT ( 'NONE',  ( 597.5000000000000000, -147.5000000000084128, 8.999999999998131273 ) ) ;
#139 = DIRECTION ( 'NONE',  ( 0.0000000000000000000, 0.0000000000000000000, 1.000000000000000000 ) ) ;
#140 = CARTESIAN_POINT ( 'NONE',  ( 597.5000000000000000, 147.4999999999914166, -1.867823245124239890E-12 ) ) ;
#141 = LINE ( 'NONE', #78, #105 ) ;
#142 = DIRECTION ( 'NONE',  ( -1.000000000000000000, -2.654086101221550238E-16, -1.496886769447917064E-30 ) ) ;
#143 = PRODUCT ( 'LEDVANCE_Panel_PFM_gen3_1200x300', 'LEDVANCE_Panel_PFM_gen3_1200x300', '', ( #146 ) ) ;
#144 = AXIS2_PLACEMENT_3D ( 'NONE', #260, #264, #330 ) ;
#145 = PRODUCT_DEFINITION_CONTEXT ( 'detailed design', #68, 'design' ) ;
#146 = PRODUCT_CONTEXT ( 'NONE', #148, 'mechanical' ) ;
#147 = LINE ( 'NONE', #26, #24 ) ;
#148 = APPLICATION_CONTEXT ( 'automotive_design' ) ;
#149 = EDGE_CURVE ( 'NONE', #74, #251, #229, .T. ) ;
#150 = PLANE ( 'NONE',  #227 ) ;
#151 = CARTESIAN_POINT ( 'NONE',  ( 597.5000000000000000, -147.5000000000084128, 8.999999999998131273 ) ) ;
#152 = LINE ( 'NONE', #319, #92 ) ;
#153 = ORIENTED_EDGE ( 'NONE', *, *, #308, .F. ) ;
#154 = COLOUR_RGB ( '',0.7921568627450980005, 0.8196078431372548767, 0.9333333333333333481 ) ;
#155 = LINE ( 'NONE', #336, #248 ) ;
#156 = CARTESIAN_POINT ( 'NONE',  ( -577.5000000000000000, 127.4999999999955946, 5.999999999997980282 ) ) ;
#157 = EDGE_LOOP ( 'NONE', ( #221, #323, #303, #256 ) ) ;
#158 = CARTESIAN_POINT ( 'NONE',  ( -597.4999999999929514, -147.5000000000084128, -1.867823245124239890E-12 ) ) ;
#159 = MECHANICAL_DESIGN_GEOMETRIC_PRESENTATION_REPRESENTATION (  '', ( #281 ), #120 ) ;
#160 = PLANE ( 'NONE',  #144 ) ;
#161 = AXIS2_PLACEMENT_3D ( 'NONE', #57, #305, #43 ) ;
#162 = CARTESIAN_POINT ( 'NONE',  ( -597.4999999999929514, -147.5000000000084128, 8.999999999998131273 ) ) ;
#163 = ADVANCED_FACE ( 'NONE', ( #100 ), #160, .T. ) ;
#164 = DIRECTION ( 'NONE',  ( -1.000000000000000000, 0.0000000000000000000, 0.0000000000000000000 ) ) ;
#165 = FACE_OUTER_BOUND ( 'NONE', #9, .T. ) ;
#166 = DIRECTION ( 'NONE',  ( 0.0000000000000000000, -1.000000000000000000, 0.0000000000000000000 ) ) ;
#167 = EDGE_CURVE ( 'NONE', #310, #44, #235, .T. ) ;
#168 = FACE_OUTER_BOUND ( 'NONE', #243, .T. ) ;
#169 = AXIS2_PLACEMENT_3D ( 'NONE', #257, #66, #72 ) ;
#170 = ORIENTED_EDGE ( 'NONE', *, *, #60, .T. ) ;
#171 = ORIENTED_EDGE ( 'NONE', *, *, #149, .F. ) ;
#172 = VECTOR ( 'NONE', #309, 1000.000000000000000 ) ;
#173 = CARTESIAN_POINT ( 'NONE',  ( 597.5000000000000000, -147.5000000000084128, -1.867823245124239890E-12 ) ) ;
#174 = VECTOR ( 'NONE', #124, 1000.000000000000000 ) ;
#175 = FACE_OUTER_BOUND ( 'NONE', #117, .T. ) ;
#176 = ADVANCED_FACE ( 'NONE', ( #127 ), #301, .T. ) ;
#177 = ORIENTED_EDGE ( 'NONE', *, *, #280, .F. ) ;
#178 = LINE ( 'NONE', #211, #224 ) ;
#179 = CARTESIAN_POINT ( 'NONE',  ( 577.5000000000000000, -127.5000000000046043, 5.999999999997149835 ) ) ;
#180 = CARTESIAN_POINT ( 'NONE',  ( -597.4999999999929514, -147.5000000000084128, 8.999999999998131273 ) ) ;
#181 =( LENGTH_UNIT ( ) NAMED_UNIT ( * ) SI_UNIT ( .MILLI., .METRE. ) );
#182 = ORIENTED_EDGE ( 'NONE', *, *, #287, .T. ) ;
#183 = SURFACE_STYLE_USAGE ( .BOTH. , #38 ) ;
#184 = VERTEX_POINT ( 'NONE', #304 ) ;
#185 = PRODUCT_DEFINITION ( 'UNKNOWN', '', #15, #145 ) ;
#186 = LINE ( 'NONE', #162, #111 ) ;
#187 = VECTOR ( 'NONE', #86, 1000.000000000000000 ) ;
#188 = LINE ( 'NONE', #286, #109 ) ;
#189 = DIRECTION ( 'NONE',  ( 1.000000000000000000, 0.0000000000000000000, 0.0000000000000000000 ) ) ;
#190 =( LENGTH_UNIT ( ) NAMED_UNIT ( * ) SI_UNIT ( .MILLI., .METRE. ) );
#191 = LINE ( 'NONE', #52, #238 ) ;
#192 = PLANE ( 'NONE',  #272 ) ;
#193 = VECTOR ( 'NONE', #344, 1000.000000000000000 ) ;
#194 = EDGE_CURVE ( 'NONE', #49, #77, #178, .T. ) ;
#195 = CARTESIAN_POINT ( 'NONE',  ( -597.4999999999929514, -147.5000000000084128, -1.867823245124239890E-12 ) ) ;
#196 = UNCERTAINTY_MEASURE_WITH_UNIT (LENGTH_MEASURE( 1.000000000000000082E-05 ), #190, 'distance_accuracy_value', 'NONE');
#197 = ORIENTED_EDGE ( 'NONE', *, *, #116, .T. ) ;
#198 = VERTEX_POINT ( 'NONE', #278 ) ;
#199 = ADVANCED_FACE ( 'NONE', ( #11, #231 ), #331, .T. ) ;
#200 = VERTEX_POINT ( 'NONE', #180 ) ;
#201 = VECTOR ( 'NONE', #321, 1000.000000000000000 ) ;
#202 = LINE ( 'NONE', #151, #187 ) ;
#203 = CARTESIAN_POINT ( 'NONE',  ( -597.4999999999929514, 147.4999999999914166, -1.867522803067344952E-12 ) ) ;
#204 =( GEOMETRIC_REPRESENTATION_CONTEXT ( 3 ) GLOBAL_UNCERTAINTY_ASSIGNED_CONTEXT ( ( #196 ) ) GLOBAL_UNIT_ASSIGNED_CONTEXT ( ( #190, #215, #45 ) ) REPRESENTATION_CONTEXT ( 'NONE', 'WORKASPACE' ) );
#205 = CARTESIAN_POINT ( 'NONE',  ( -597.4999999999929514, 147.4999999999914166, 8.999999999998131273 ) ) ;
#206 = ORIENTED_EDGE ( 'NONE', *, *, #129, .T. ) ;
#207 = DIRECTION ( 'NONE',  ( 5.308172202443100477E-16, -1.000000000000000000, 0.0000000000000000000 ) ) ;
#208 = EDGE_LOOP ( 'NONE', ( #153, #214, #226, #170 ) ) ;
#209 = DIRECTION ( 'NONE',  ( -1.000000000000000000, 0.0000000000000000000, 0.0000000000000000000 ) ) ;
#210 = MANIFOLD_SOLID_BREP ( 'Imported2', #327 ) ;
#211 = CARTESIAN_POINT ( 'NONE',  ( 597.5000000000000000, -147.5000000000084128, -1.867823245124239890E-12 ) ) ;
#212 = AXIS2_PLACEMENT_3D ( 'NONE', #205, #338, #209 ) ;
#213 = DIRECTION ( 'NONE',  ( 0.0000000000000000000, -1.000000000000000000, -5.639932965094730736E-15 ) ) ;
#214 = ORIENTED_EDGE ( 'NONE', *, *, #280, .T. ) ;
#215 =( NAMED_UNIT ( * ) PLANE_ANGLE_UNIT ( ) SI_UNIT ( $, .RADIAN. ) );
#216 = CARTESIAN_POINT ( 'NONE',  ( -597.4999999999929514, -147.5000000000084128, -1.867522803067344952E-12 ) ) ;
#217 = VERTEX_POINT ( 'NONE', #218 ) ;
#218 = CARTESIAN_POINT ( 'NONE',  ( 597.5000000000000000, -147.5000000000084128, 8.999999999998131273 ) ) ;
#219 = EDGE_CURVE ( 'NONE', #37, #184, #97, .T. ) ;
#220 = CARTESIAN_POINT ( 'NONE',  ( 597.5000000000000000, 147.4999999999914166, 8.999999999998131273 ) ) ;
#221 = ORIENTED_EDGE ( 'NONE', *, *, #333, .T. ) ;
#222 = LINE ( 'NONE', #293, #1 ) ;
#223 = ORIENTED_EDGE ( 'NONE', *, *, #135, .F. ) ;
#224 = VECTOR ( 'NONE', #255, 1000.000000000000000 ) ;
#225 = CARTESIAN_POINT ( 'NONE',  ( 577.5000000000000000, -127.5000000000046043, 8.999999999998131273 ) ) ;
#226 = ORIENTED_EDGE ( 'NONE', *, *, #29, .F. ) ;
#227 = AXIS2_PLACEMENT_3D ( 'NONE', #30, #7, #119 ) ;
#228 = DIRECTION ( 'NONE',  ( 1.000000000000000000, 0.0000000000000000000, 0.0000000000000000000 ) ) ;
#229 = LINE ( 'NONE', #14, #93 ) ;
#230 = VECTOR ( 'NONE', #23, 1000.000000000000000 ) ;
#231 = FACE_OUTER_BOUND ( 'NONE', #157, .T. ) ;
#232 = ORIENTED_EDGE ( 'NONE', *, *, #53, .T. ) ;
#233 = DIRECTION ( 'NONE',  ( 0.0000000000000000000, 3.229880777848950052E-15, -1.000000000000000000 ) ) ;
#234 = EDGE_LOOP ( 'NONE', ( #261, #266, #99, #63 ) ) ;
#235 = LINE ( 'NONE', #203, #283 ) ;
#236 = ADVANCED_FACE ( 'NONE', ( #165 ), #246, .F. ) ;
#237 = DIRECTION ( 'NONE',  ( 0.0000000000000000000, 0.0000000000000000000, -1.000000000000000000 ) ) ;
#238 = VECTOR ( 'NONE', #237, 1000.000000000000000 ) ;
#239 = ORIENTED_EDGE ( 'NONE', *, *, #267, .T. ) ;
#240 = CARTESIAN_POINT ( 'NONE',  ( 577.5000000000000000, 127.4999999999955946, 5.999999999997980282 ) ) ;
#241 = EDGE_CURVE ( 'NONE', #77, #200, #289, .T. ) ;
#242 = DIRECTION ( 'NONE',  ( 0.0000000000000000000, 5.639932965094730736E-15, -1.000000000000000000 ) ) ;
#243 = EDGE_LOOP ( 'NONE', ( #46, #91, #171, #88 ) ) ;
#244 = CARTESIAN_POINT ( 'NONE',  ( -577.5000000000000000, -127.5000000000046043, 8.999999999997719158 ) ) ;
#245 = COLOUR_RGB ( '',0.7921568627450980005, 0.8196078431372548767, 0.9333333333333333481 ) ;
#246 = PLANE ( 'NONE',  #340 ) ;
#247 = EDGE_CURVE ( 'NONE', #74, #107, #152, .T. ) ;
#248 = VECTOR ( 'NONE', #40, 1000.000000000000000 ) ;
#249 = SURFACE_SIDE_STYLE ('',( #12 ) ) ;
#250 = ORIENTED_EDGE ( 'NONE', *, *, #194, .T. ) ;
#251 = VERTEX_POINT ( 'NONE', #22 ) ;
#252 =( NAMED_UNIT ( * ) SI_UNIT ( $, .STERADIAN. ) SOLID_ANGLE_UNIT ( ) );
#253 = CARTESIAN_POINT ( 'NONE',  ( 597.5000000000000000, -147.5000000000084128, -1.867522803067344952E-12 ) ) ;
#254 = LINE ( 'NONE', #253, #123 ) ;
#255 = DIRECTION ( 'NONE',  ( -1.000000000000000000, 0.0000000000000000000, 0.0000000000000000000 ) ) ;
#256 = ORIENTED_EDGE ( 'NONE', *, *, #13, .T. ) ;
#257 = CARTESIAN_POINT ( 'NONE',  ( -597.4999999999929514, 147.4999999999914166, -1.867823245124239890E-12 ) ) ;
#258 = ORIENTED_EDGE ( 'NONE', *, *, #48, .T. ) ;
#259 = AXIS2_PLACEMENT_3D ( 'NONE', #76, #142, #19 ) ;
#260 = CARTESIAN_POINT ( 'NONE',  ( -597.4999999999929514, 147.4999999999914166, 8.999999999998131273 ) ) ;
#261 = ORIENTED_EDGE ( 'NONE', *, *, #29, .T. ) ;
#262 = VECTOR ( 'NONE', #18, 1000.000000000000000 ) ;
#263 = ADVANCED_FACE ( 'NONE', ( #110 ), #106, .T. ) ;
#264 = DIRECTION ( 'NONE',  ( -1.000000000000000000, -2.294210019699985308E-16, -0.0000000000000000000 ) ) ;
#265 = ORIENTED_EDGE ( 'NONE', *, *, #219, .T. ) ;
#266 = ORIENTED_EDGE ( 'NONE', *, *, #95, .T. ) ;
#267 = EDGE_CURVE ( 'NONE', #107, #184, #141, .T. ) ;
#268 = DIRECTION ( 'NONE',  ( 0.0000000000000000000, 0.0000000000000000000, 1.000000000000000000 ) ) ;
#269 = PLANE ( 'NONE',  #259 ) ;
#270 = ADVANCED_FACE ( 'NONE', ( #85 ), #192, .F. ) ;
#271 = ORIENTED_EDGE ( 'NONE', *, *, #95, .F. ) ;
#272 = AXIS2_PLACEMENT_3D ( 'NONE', #244, #213, #242 ) ;
#273 = LINE ( 'NONE', #195, #75 ) ;
#274 = EDGE_CURVE ( 'NONE', #332, #49, #47, .T. ) ;
#275 = ORIENTED_EDGE ( 'NONE', *, *, #241, .T. ) ;
#276 =( GEOMETRIC_REPRESENTATION_CONTEXT ( 3 ) GLOBAL_UNCERTAINTY_ASSIGNED_CONTEXT ( ( #61 ) ) GLOBAL_UNIT_ASSIGNED_CONTEXT ( ( #322, #320, #252 ) ) REPRESENTATION_CONTEXT ( 'NONE', 'WORKASPACE' ) );
#277 = DIRECTION ( 'NONE',  ( 0.0000000000000000000, 1.000000000000000000, 5.639932965094730736E-15 ) ) ;
#278 = CARTESIAN_POINT ( 'NONE',  ( -577.5000000000000000, 127.4999999999955946, 5.999999999997980282 ) ) ;
#279 = SURFACE_STYLE_FILL_AREA ( #334 ) ;
#280 = EDGE_CURVE ( 'NONE', #335, #62, #291, .T. ) ;
#281 = STYLED_ITEM ( 'NONE', ( #56 ), #5 ) ;
#282 = PLANE ( 'NONE',  #317 ) ;
#283 = VECTOR ( 'NONE', #101, 1000.000000000000000 ) ;
#284 = CARTESIAN_POINT ( 'NONE',  ( 577.5000000000000000, 127.4999999999953957, 8.999999999998539835 ) ) ;
#285 = ORIENTED_EDGE ( 'NONE', *, *, #274, .F. ) ;
#286 = CARTESIAN_POINT ( 'NONE',  ( 597.5000000000000000, 147.4999999999914166, 8.999999999998131273 ) ) ;
#287 = EDGE_CURVE ( 'NONE', #28, #332, #191, .T. ) ;
#288 = ORIENTED_EDGE ( 'NONE', *, *, #121, .F. ) ;
#289 = LINE ( 'NONE', #216, #98 ) ;
#290 = DIRECTION ( 'NONE',  ( 1.000000000000000000, 2.294210019699985308E-16, 0.0000000000000000000 ) ) ;
#291 = LINE ( 'NONE', #54, #193 ) ;
#292 = CARTESIAN_POINT ( 'NONE',  ( 577.5000000000000000, 127.4999999999953957, 8.999999999998131273 ) ) ;
#293 = CARTESIAN_POINT ( 'NONE',  ( -577.5000000000000000, 127.4999999999953957, 8.999999999998131273 ) ) ;
#294 = ORIENTED_EDGE ( 'NONE', *, *, #194, .F. ) ;
#295 = ORIENTED_EDGE ( 'NONE', *, *, #13, .F. ) ;
#296 = EDGE_LOOP ( 'NONE', ( #295, #39, #285, #3 ) ) ;
#297 = AXIS2_PLACEMENT_3D ( 'NONE', #284, #277, #306 ) ;
#298 = CARTESIAN_POINT ( 'NONE',  ( -597.4999999999929514, 147.4999999999914166, 8.999999999998131273 ) ) ;
#299 =( NAMED_UNIT ( * ) SI_UNIT ( $, .STERADIAN. ) SOLID_ANGLE_UNIT ( ) );
#300 = ORIENTED_EDGE ( 'NONE', *, *, #116, .F. ) ;
#301 = PLANE ( 'NONE',  #169 ) ;
#302 = FILL_AREA_STYLE_COLOUR ( '', #154 ) ;
#303 = ORIENTED_EDGE ( 'NONE', *, *, #135, .T. ) ;
#304 = CARTESIAN_POINT ( 'NONE',  ( 577.5000000000000000, -127.5000000000046043, 5.999999999997149835 ) ) ;
#305 = DIRECTION ( 'NONE',  ( 0.0000000000000000000, 1.000000000000000000, 0.0000000000000000000 ) ) ;
#306 = DIRECTION ( 'NONE',  ( 0.0000000000000000000, 5.639932965094730736E-15, -1.000000000000000000 ) ) ;
#307 = EDGE_LOOP ( 'NONE', ( #90, #325, #288, #265 ) ) ;
#308 = EDGE_CURVE ( 'NONE', #335, #198, #134, .T. ) ;
#309 = DIRECTION ( 'NONE',  ( -1.000000000000000000, 0.0000000000000000000, 0.0000000000000000000 ) ) ;
#310 = VERTEX_POINT ( 'NONE', #83 ) ;
#311 = DIRECTION ( 'NONE',  ( 1.000000000000000000, 0.0000000000000000000, 0.0000000000000000000 ) ) ;
#312 = DIRECTION ( 'NONE',  ( 0.0000000000000000000, 5.639932965094730736E-15, -1.000000000000000000 ) ) ;
#313 = UNCERTAINTY_MEASURE_WITH_UNIT (LENGTH_MEASURE( 1.000000000000000082E-05 ), #181, 'distance_accuracy_value', 'NONE');
#314 = PRESENTATION_LAYER_ASSIGNMENT (  '', '', ( #281 ) ) ;
#315 = APPLICATION_PROTOCOL_DEFINITION ( 'draft international standard', 'automotive_design', 1998, #148 ) ;
#316 = CARTESIAN_POINT ( 'NONE',  ( 577.5000000000000000, 127.4999999999955946, 5.999999999997980282 ) ) ;
#317 = AXIS2_PLACEMENT_3D ( 'NONE', #156, #233, #103 ) ;
#318 = ADVANCED_FACE ( 'NONE', ( #168 ), #269, .F. ) ;
#319 = CARTESIAN_POINT ( 'NONE',  ( -577.5000000000000000, -127.5000000000046043, 8.999999999997719158 ) ) ;
#320 =( NAMED_UNIT ( * ) PLANE_ANGLE_UNIT ( ) SI_UNIT ( $, .RADIAN. ) );
#321 = DIRECTION ( 'NONE',  ( 2.294210019699985308E-16, -1.000000000000000000, 0.0000000000000000000 ) ) ;
#322 =( LENGTH_UNIT ( ) NAMED_UNIT ( * ) SI_UNIT ( .MILLI., .METRE. ) );
#323 = ORIENTED_EDGE ( 'NONE', *, *, #42, .T. ) ;
#324 = ORIENTED_EDGE ( 'NONE', *, *, #42, .F. ) ;
#325 = ORIENTED_EDGE ( 'NONE', *, *, #247, .F. ) ;
#326 = LINE ( 'NONE', #8, #201 ) ;
#327 = CLOSED_SHELL ( 'NONE', ( #199, #176, #65, #163, #4, #263, #112, #102, #318, #270, #236 ) ) ;
#328 = PRODUCT_RELATED_PRODUCT_CATEGORY ( 'part', '', ( #143 ) ) ;
#329 = ORIENTED_EDGE ( 'NONE', *, *, #167, .T. ) ;
#330 = DIRECTION ( 'NONE',  ( 0.0000000000000000000, 0.0000000000000000000, -1.000000000000000000 ) ) ;
#331 = PLANE ( 'NONE',  #212 ) ;
#332 = VERTEX_POINT ( 'NONE', #341 ) ;
#333 = EDGE_CURVE ( 'NONE', #28, #44, #188, .T. ) ;
#334 = FILL_AREA_STYLE ('',( #302 ) ) ;
#335 = VERTEX_POINT ( 'NONE', #240 ) ;
#336 = CARTESIAN_POINT ( 'NONE',  ( 577.5000000000000000, -127.5000000000046043, 8.999999999998131273 ) ) ;
#337 = EDGE_LOOP ( 'NONE', ( #81, #250, #232, #258 ) ) ;
#338 = DIRECTION ( 'NONE',  ( 0.0000000000000000000, 0.0000000000000000000, 1.000000000000000000 ) ) ;
#339 = EDGE_LOOP ( 'NONE', ( #104, #206, #239, #197 ) ) ;
#340 = AXIS2_PLACEMENT_3D ( 'NONE', #108, #21, #312 ) ;
#341 = CARTESIAN_POINT ( 'NONE',  ( 597.5000000000000000, 147.4999999999914166, -1.867823245124239890E-12 ) ) ;
#342 = DIRECTION ( 'NONE',  ( 0.0000000000000000000, -1.127986593018946147E-14, -1.000000000000000000 ) ) ;
#343 = PRESENTATION_STYLE_ASSIGNMENT (( #183 ) ) ;
#344 = DIRECTION ( 'NONE',  ( 0.0000000000000000000, -5.639932965094730736E-15, 1.000000000000000000 ) ) ;
ENDSEC;
END-ISO-10303-21;
