ISO-10303-21;
HEADER;
FILE_DESCRIPTION (( 'STEP AP214' ),
    '1' );
FILE_NAME ('PL_CMFT_1200.STEP',
    '2022-11-16T10:51:12',
    ( '' ),
    ( '' ),
    'SwSTEP 2.0',
    'SolidWorks 2020',
    '' );
FILE_SCHEMA (( 'AUTOMOTIVE_DESIGN' ));
ENDSEC;

DATA;
#1 = CARTESIAN_POINT ( 'NONE',  ( 0.1280000000000000027, -0.5779999999999999583, -0.01099999999999999936 ) ) ;
#2 = EDGE_CURVE ( 'NONE', #211, #239, #168, .T. ) ;
#3 = VERTEX_POINT ( 'NONE', #15 ) ;
#4 = VERTEX_POINT ( 'NONE', #227 ) ;
#5 = CARTESIAN_POINT ( 'NONE',  ( -0.1280000000000000027, 0.5779999999999999583, -0.01099999999999999936 ) ) ;
#6 = AXIS2_PLACEMENT_3D ( 'NONE', #127, #203, #47 ) ;
#7 =( NAMED_UNIT ( * ) PLANE_ANGLE_UNIT ( ) SI_UNIT ( $, .RADIAN. ) );
#8 = PRODUCT_DEFINITION ( 'UNKNOWN', '', #10, #44 ) ;
#9 = DIRECTION ( 'NONE',  ( 0.000000000000000000, 0.000000000000000000, -1.000000000000000000 ) ) ;
#10 = PRODUCT_DEFINITION_FORMATION_WITH_SPECIFIED_SOURCE ( 'ANY', '', #138, .NOT_KNOWN. ) ;
#11 = AXIS2_PLACEMENT_3D ( 'NONE', #304, #170, #280 ) ;
#12 = CARTESIAN_POINT ( 'NONE',  ( 0.000000000000000000, 0.000000000000000000, -0.01099999999999999936 ) ) ;
#13 = SURFACE_STYLE_FILL_AREA ( #38 ) ;
#14 = CARTESIAN_POINT ( 'NONE',  ( 0.1474999999999999922, -0.5975000000000000311, -0.01099999999999999936 ) ) ;
#15 = CARTESIAN_POINT ( 'NONE',  ( 0.1280000000000000027, 0.5779999999999999583, -0.01099999999999999936 ) ) ;
#16 = PLANE ( 'NONE',  #171 ) ;
#17 = DIRECTION ( 'NONE',  ( 0.000000000000000000, -1.000000000000000000, 0.000000000000000000 ) ) ;
#18 = UNCERTAINTY_MEASURE_WITH_UNIT (LENGTH_MEASURE( 1.000000000000000082E-05 ), #214, 'distance_accuracy_value', 'NONE');
#19 = CARTESIAN_POINT ( 'NONE',  ( -0.1474999999999999922, 0.5975000000000000311, -0.01099999999999999936 ) ) ;
#20 = ADVANCED_FACE ( 'NONE', ( #173, #335 ), #282, .T. ) ;
#21 = PLANE ( 'NONE',  #80 ) ;
#22 = VERTEX_POINT ( 'NONE', #122 ) ;
#23 = PLANE ( 'NONE',  #6 ) ;
#24 = ORIENTED_EDGE ( 'NONE', *, *, #279, .F. ) ;
#25 = EDGE_CURVE ( 'NONE', #42, #308, #257, .T. ) ;
#26 = LINE ( 'NONE', #234, #328 ) ;
#27 = ORIENTED_EDGE ( 'NONE', *, *, #111, .F. ) ;
#28 = DIRECTION ( 'NONE',  ( 1.000000000000000000, 0.000000000000000000, 0.000000000000000000 ) ) ;
#29 = VERTEX_POINT ( 'NONE', #37 ) ;
#30 = LINE ( 'NONE', #212, #334 ) ;
#31 = PRODUCT_RELATED_PRODUCT_CATEGORY ( 'part', '', ( #138 ) ) ;
#32 = LINE ( 'NONE', #220, #295 ) ;
#33 = VECTOR ( 'NONE', #151, 1.000000000000000000 ) ;
#34 = DIRECTION ( 'NONE',  ( 1.000000000000000000, 0.000000000000000000, 0.000000000000000000 ) ) ;
#35 = ORIENTED_EDGE ( 'NONE', *, *, #275, .T. ) ;
#36 = EDGE_CURVE ( 'NONE', #4, #81, #41, .T. ) ;
#37 = CARTESIAN_POINT ( 'NONE',  ( -0.1280000000000000027, -0.5779999999999999583, -0.01099999999999999936 ) ) ;
#38 = FILL_AREA_STYLE ('',( #325 ) ) ;
#39 = LINE ( 'NONE', #96, #271 ) ;
#40 = VECTOR ( 'NONE', #260, 1.000000000000000000 ) ;
#41 = LINE ( 'NONE', #149, #307 ) ;
#42 = VERTEX_POINT ( 'NONE', #142 ) ;
#43 = DIRECTION ( 'NONE',  ( -1.000000000000000000, 0.000000000000000000, 0.000000000000000000 ) ) ;
#44 = PRODUCT_DEFINITION_CONTEXT ( 'detailed design', #268, 'design' ) ;
#45 = DIRECTION ( 'NONE',  ( 1.000000000000000000, 0.000000000000000000, 0.000000000000000000 ) ) ;
#46 = ADVANCED_FACE ( 'NONE', ( #201 ), #16, .F. ) ;
#47 = DIRECTION ( 'NONE',  ( 0.000000000000000000, 1.000000000000000000, 0.000000000000000000 ) ) ;
#48 = PLANE ( 'NONE',  #231 ) ;
#49 = ORIENTED_EDGE ( 'NONE', *, *, #36, .T. ) ;
#50 = DIRECTION ( 'NONE',  ( 0.000000000000000000, -1.000000000000000000, 0.000000000000000000 ) ) ;
#51 = VECTOR ( 'NONE', #288, 1.000000000000000000 ) ;
#52 = EDGE_CURVE ( 'NONE', #267, #207, #232, .T. ) ;
#53 = ORIENTED_EDGE ( 'NONE', *, *, #272, .F. ) ;
#54 = LINE ( 'NONE', #266, #322 ) ;
#55 = VERTEX_POINT ( 'NONE', #65 ) ;
#56 = CARTESIAN_POINT ( 'NONE',  ( -0.1280000000000000027, 0.5779999999999999583, -0.008999999999999999320 ) ) ;
#57 = ORIENTED_EDGE ( 'NONE', *, *, #97, .T. ) ;
#58 = VECTOR ( 'NONE', #311, 1.000000000000000000 ) ;
#59 = PRESENTATION_STYLE_ASSIGNMENT (( #323 ) ) ;
#60 = ADVANCED_FACE ( 'NONE', ( #118 ), #226, .F. ) ;
#61 = SURFACE_STYLE_FILL_AREA ( #337 ) ;
#62 = CARTESIAN_POINT ( 'NONE',  ( 0.1474999999999999922, 0.5975000000000000311, -0.01099999999999999936 ) ) ;
#63 = PRESENTATION_LAYER_ASSIGNMENT (  '', '', ( #210 ) ) ;
#64 = EDGE_CURVE ( 'NONE', #22, #131, #39, .T. ) ;
#65 = CARTESIAN_POINT ( 'NONE',  ( -0.1280000000000000027, -0.5779999999999999583, -0.008999999999999999320 ) ) ;
#66 = SURFACE_SIDE_STYLE ('',( #13 ) ) ;
#67 = ORIENTED_EDGE ( 'NONE', *, *, #25, .F. ) ;
#68 = ORIENTED_EDGE ( 'NONE', *, *, #248, .T. ) ;
#69 = ORIENTED_EDGE ( 'NONE', *, *, #340, .F. ) ;
#70 = DIRECTION ( 'NONE',  ( 0.000000000000000000, 0.000000000000000000, 1.000000000000000000 ) ) ;
#71 = EDGE_LOOP ( 'NONE', ( #27, #229, #289, #91 ) ) ;
#72 = FACE_OUTER_BOUND ( 'NONE', #318, .T. ) ;
#73 = ADVANCED_FACE ( 'NONE', ( #253 ), #198, .F. ) ;
#74 = CARTESIAN_POINT ( 'NONE',  ( -0.1280000000000000027, 0.5779999999999999583, -0.01099999999999999936 ) ) ;
#75 = LINE ( 'NONE', #104, #200 ) ;
#76 = CARTESIAN_POINT ( 'NONE',  ( -0.1474999999999999922, -0.5975000000000000311, -0.01099999999999999936 ) ) ;
#77 = ORIENTED_EDGE ( 'NONE', *, *, #283, .T. ) ;
#78 = AXIS2_PLACEMENT_3D ( 'NONE', #62, #108, #28 ) ;
#79 = CARTESIAN_POINT ( 'NONE',  ( 0.000000000000000000, 0.000000000000000000, -0.008999999999999999320 ) ) ;
#80 = AXIS2_PLACEMENT_3D ( 'NONE', #286, #343, #50 ) ;
#81 = VERTEX_POINT ( 'NONE', #147 ) ;
#82 = UNCERTAINTY_MEASURE_WITH_UNIT (LENGTH_MEASURE( 1.000000000000000082E-05 ), #163, 'distance_accuracy_value', 'NONE');
#83 = ORIENTED_EDGE ( 'NONE', *, *, #90, .T. ) ;
#84 = DIRECTION ( 'NONE',  ( 0.000000000000000000, 0.000000000000000000, 1.000000000000000000 ) ) ;
#85 = EDGE_CURVE ( 'NONE', #267, #169, #255, .T. ) ;
#86 = CARTESIAN_POINT ( 'NONE',  ( 0.1280000000000000027, -0.5779999999999999583, -0.01099999999999999936 ) ) ;
#87 = VECTOR ( 'NONE', #297, 1.000000000000000000 ) ;
#88 = STYLED_ITEM ( 'NONE', ( #59 ), #247 ) ;
#89 = LINE ( 'NONE', #273, #115 ) ;
#90 = EDGE_CURVE ( 'NONE', #169, #211, #158, .T. ) ;
#91 = ORIENTED_EDGE ( 'NONE', *, *, #204, .T. ) ;
#92 = ORIENTED_EDGE ( 'NONE', *, *, #85, .T. ) ;
#93 = MECHANICAL_DESIGN_GEOMETRIC_PRESENTATION_REPRESENTATION (  '', ( #88 ), #102 ) ;
#94 = DIRECTION ( 'NONE',  ( -1.000000000000000000, 0.000000000000000000, 0.000000000000000000 ) ) ;
#95 = SURFACE_STYLE_USAGE ( .BOTH. , #66 ) ;
#96 = CARTESIAN_POINT ( 'NONE',  ( 0.1474999999999999922, 0.5975000000000000311, -0.01099999999999999936 ) ) ;
#97 = EDGE_CURVE ( 'NONE', #207, #237, #176, .T. ) ;
#98 = ORIENTED_EDGE ( 'NONE', *, *, #136, .F. ) ;
#99 = CARTESIAN_POINT ( 'NONE',  ( 0.1280000000000000027, -0.5779999999999999583, -0.008999999999999999320 ) ) ;
#100 = LINE ( 'NONE', #132, #119 ) ;
#101 = DIRECTION ( 'NONE',  ( -8.673617379884039416E-16, -1.000000000000000000, 0.000000000000000000 ) ) ;
#102 =( GEOMETRIC_REPRESENTATION_CONTEXT ( 3 ) GLOBAL_UNCERTAINTY_ASSIGNED_CONTEXT ( ( #82 ) ) GLOBAL_UNIT_ASSIGNED_CONTEXT ( ( #163, #164, #274 ) ) REPRESENTATION_CONTEXT ( 'NONE', 'WORKASPACE' ) );
#103 = DIRECTION ( 'NONE',  ( 0.000000000000000000, 0.000000000000000000, -1.000000000000000000 ) ) ;
#104 = CARTESIAN_POINT ( 'NONE',  ( 0.1280000000000000027, 0.5779999999999999583, -0.008999999999999999320 ) ) ;
#105 = ORIENTED_EDGE ( 'NONE', *, *, #279, .T. ) ;
#106 = DIRECTION ( 'NONE',  ( 1.000000000000000000, 0.000000000000000000, 0.000000000000000000 ) ) ;
#107 = ORIENTED_EDGE ( 'NONE', *, *, #294, .F. ) ;
#108 = DIRECTION ( 'NONE',  ( -0.000000000000000000, 1.000000000000000000, 0.000000000000000000 ) ) ;
#109 = ORIENTED_EDGE ( 'NONE', *, *, #217, .T. ) ;
#110 = PLANE ( 'NONE',  #261 ) ;
#111 = EDGE_CURVE ( 'NONE', #237, #239, #100, .T. ) ;
#112 = EDGE_LOOP ( 'NONE', ( #314, #183, #98, #157 ) ) ;
#113 = LINE ( 'NONE', #184, #339 ) ;
#114 = FACE_OUTER_BOUND ( 'NONE', #71, .T. ) ;
#115 = VECTOR ( 'NONE', #189, 1.000000000000000000 ) ;
#116 = AXIS2_PLACEMENT_3D ( 'NONE', #329, #330, #94 ) ;
#117 = CARTESIAN_POINT ( 'NONE',  ( 0.1280000000000000027, 0.5779999999999999583, -0.008999999999999999320 ) ) ;
#118 = FACE_OUTER_BOUND ( 'NONE', #154, .T. ) ;
#119 = VECTOR ( 'NONE', #202, 1.000000000000000000 ) ;
#120 = CARTESIAN_POINT ( 'NONE',  ( 0.1474999999999999922, -0.5975000000000000311, -0.01099999999999999936 ) ) ;
#121 = ADVANCED_FACE ( 'NONE', ( #236 ), #23, .F. ) ;
#122 = CARTESIAN_POINT ( 'NONE',  ( 0.1474999999999999922, 0.5975000000000000311, -0.01099999999999999936 ) ) ;
#123 = EDGE_LOOP ( 'NONE', ( #148, #172, #213, #107 ) ) ;
#124 = EDGE_CURVE ( 'NONE', #326, #3, #259, .T. ) ;
#125 = DIRECTION ( 'NONE',  ( 1.000000000000000000, -7.526935760170549524E-16, 0.000000000000000000 ) ) ;
#126 = CARTESIAN_POINT ( 'NONE',  ( 0.1474999999999999922, -0.5975000000000000311, -0.01099999999999999936 ) ) ;
#127 = CARTESIAN_POINT ( 'NONE',  ( -0.1280000000000000027, -0.5779999999999999583, -0.008999999999999999320 ) ) ;
#128 = VECTOR ( 'NONE', #269, 1.000000000000000000 ) ;
#129 = AXIS2_PLACEMENT_3D ( 'NONE', #284, #45, #17 ) ;
#130 = CARTESIAN_POINT ( 'NONE',  ( -0.1474999999999999922, -0.5975000000000000311, -0.01099999999999999936 ) ) ;
#131 = VERTEX_POINT ( 'NONE', #19 ) ;
#132 = CARTESIAN_POINT ( 'NONE',  ( 0.1474999999999999922, 0.5975000000000000311, 0.000000000000000000 ) ) ;
#133 = ORIENTED_EDGE ( 'NONE', *, *, #97, .F. ) ;
#134 = DIRECTION ( 'NONE',  ( -1.000000000000000000, 7.526935760170549524E-16, 0.000000000000000000 ) ) ;
#135 = ORIENTED_EDGE ( 'NONE', *, *, #52, .T. ) ;
#136 = EDGE_CURVE ( 'NONE', #42, #55, #26, .T. ) ;
#137 = ORIENTED_EDGE ( 'NONE', *, *, #52, .F. ) ;
#138 = PRODUCT ( 'PL_CMFT_1200', 'PL_CMFT_1200', '', ( #249 ) ) ;
#139 = DIRECTION ( 'NONE',  ( 0.000000000000000000, 1.000000000000000000, 0.000000000000000000 ) ) ;
#140 = DIRECTION ( 'NONE',  ( 0.000000000000000000, -1.000000000000000000, 0.000000000000000000 ) ) ;
#141 =( GEOMETRIC_REPRESENTATION_CONTEXT ( 3 ) GLOBAL_UNCERTAINTY_ASSIGNED_CONTEXT ( ( #18 ) ) GLOBAL_UNIT_ASSIGNED_CONTEXT ( ( #214, #7, #317 ) ) REPRESENTATION_CONTEXT ( 'NONE', 'WORKASPACE' ) );
#142 = CARTESIAN_POINT ( 'NONE',  ( 0.1280000000000000027, -0.5779999999999999583, -0.008999999999999999320 ) ) ;
#143 = SHAPE_DEFINITION_REPRESENTATION ( #320, #224 ) ;
#144 = EDGE_CURVE ( 'NONE', #55, #29, #338, .T. ) ;
#145 = CARTESIAN_POINT ( 'NONE',  ( 0.1474999999999999922, -0.5975000000000000311, -0.01099999999999999936 ) ) ;
#146 = VECTOR ( 'NONE', #103, 1.000000000000000000 ) ;
#147 = CARTESIAN_POINT ( 'NONE',  ( 0.1280000000000000027, 0.5779999999999999583, -0.008999999999999999320 ) ) ;
#148 = ORIENTED_EDGE ( 'NONE', *, *, #124, .F. ) ;
#149 = CARTESIAN_POINT ( 'NONE',  ( -0.1280000000000000027, 0.5779999999999999583, -0.008999999999999999320 ) ) ;
#150 = CARTESIAN_POINT ( 'NONE',  ( -0.1474999999999999922, -0.5975000000000000311, 0.000000000000000000 ) ) ;
#151 = DIRECTION ( 'NONE',  ( 0.000000000000000000, 1.000000000000000000, 0.000000000000000000 ) ) ;
#152 = CARTESIAN_POINT ( 'NONE',  ( -0.1280000000000000027, -0.5779999999999999583, -0.01099999999999999936 ) ) ;
#153 = ADVANCED_FACE ( 'NONE', ( #315 ), #48, .F. ) ;
#154 = EDGE_LOOP ( 'NONE', ( #281, #57, #293, #250 ) ) ;
#155 = VECTOR ( 'NONE', #332, 1.000000000000000000 ) ;
#156 = LINE ( 'NONE', #152, #40 ) ;
#157 = ORIENTED_EDGE ( 'NONE', *, *, #25, .T. ) ;
#158 = LINE ( 'NONE', #130, #58 ) ;
#159 = ADVANCED_FACE ( 'NONE', ( #312 ), #264, .T. ) ;
#160 = LINE ( 'NONE', #186, #230 ) ;
#161 = SURFACE_SIDE_STYLE ('',( #61 ) ) ;
#162 = AXIS2_PLACEMENT_3D ( 'NONE', #12, #302, #43 ) ;
#163 =( LENGTH_UNIT ( ) NAMED_UNIT ( * ) SI_UNIT ( $, .METRE. ) );
#164 =( NAMED_UNIT ( * ) PLANE_ANGLE_UNIT ( ) SI_UNIT ( $, .RADIAN. ) );
#165 = COLOUR_RGB ( '',0.7921568627450980005, 0.8196078431372548767, 0.9294117647058823817 ) ;
#166 = ORIENTED_EDGE ( 'NONE', *, *, #177, .T. ) ;
#167 =( NAMED_UNIT ( * ) SI_UNIT ( $, .STERADIAN. ) SOLID_ANGLE_UNIT ( ) );
#168 = LINE ( 'NONE', #336, #219 ) ;
#169 = VERTEX_POINT ( 'NONE', #76 ) ;
#170 = DIRECTION ( 'NONE',  ( -0.000000000000000000, 1.000000000000000000, 0.000000000000000000 ) ) ;
#171 = AXIS2_PLACEMENT_3D ( 'NONE', #145, #301, #125 ) ;
#172 = ORIENTED_EDGE ( 'NONE', *, *, #217, .F. ) ;
#173 = FACE_OUTER_BOUND ( 'NONE', #256, .T. ) ;
#174 = PLANE ( 'NONE',  #129 ) ;
#175 =( GEOMETRIC_REPRESENTATION_CONTEXT ( 3 ) GLOBAL_UNCERTAINTY_ASSIGNED_CONTEXT ( ( #292 ) ) GLOBAL_UNIT_ASSIGNED_CONTEXT ( ( #225, #221, #167 ) ) REPRESENTATION_CONTEXT ( 'NONE', 'WORKASPACE' ) );
#176 = LINE ( 'NONE', #285, #33 ) ;
#177 = EDGE_CURVE ( 'NONE', #81, #3, #75, .T. ) ;
#178 = LINE ( 'NONE', #179, #51 ) ;
#179 = CARTESIAN_POINT ( 'NONE',  ( -0.1474999999999999922, 0.5975000000000000311, -0.01099999999999999936 ) ) ;
#180 = ORIENTED_EDGE ( 'NONE', *, *, #136, .T. ) ;
#181 = VECTOR ( 'NONE', #9, 1.000000000000000000 ) ;
#182 = DIRECTION ( 'NONE',  ( 0.000000000000000000, 0.000000000000000000, -1.000000000000000000 ) ) ;
#183 = ORIENTED_EDGE ( 'NONE', *, *, #144, .F. ) ;
#184 = CARTESIAN_POINT ( 'NONE',  ( 0.1280000000000000027, 0.5779999999999999583, -0.01099999999999999936 ) ) ;
#185 = ORIENTED_EDGE ( 'NONE', *, *, #90, .F. ) ;
#186 = CARTESIAN_POINT ( 'NONE',  ( 0.1474999999999999922, -0.5975000000000000311, -0.01099999999999999936 ) ) ;
#187 = PLANE ( 'NONE',  #78 ) ;
#188 = CLOSED_SHELL ( 'NONE', ( #159, #246, #153, #121, #73, #60, #20, #209, #333, #309, #46 ) ) ;
#189 = DIRECTION ( 'NONE',  ( 0.000000000000000000, 1.000000000000000000, 0.000000000000000000 ) ) ;
#190 = DIRECTION ( 'NONE',  ( 0.000000000000000000, -1.000000000000000000, 0.000000000000000000 ) ) ;
#191 = ORIENTED_EDGE ( 'NONE', *, *, #177, .F. ) ;
#192 = CARTESIAN_POINT ( 'NONE',  ( 0.000000000000000000, 0.000000000000000000, 0.000000000000000000 ) ) ;
#193 = AXIS2_PLACEMENT_3D ( 'NONE', #192, #70, #196 ) ;
#194 = DIRECTION ( 'NONE',  ( 1.000000000000000000, 0.000000000000000000, 0.000000000000000000 ) ) ;
#195 = AXIS2_PLACEMENT_3D ( 'NONE', #79, #182, #341 ) ;
#196 = DIRECTION ( 'NONE',  ( 1.000000000000000000, 0.000000000000000000, 0.000000000000000000 ) ) ;
#197 = DIRECTION ( 'NONE',  ( -1.000000000000000000, 0.000000000000000000, 0.000000000000000000 ) ) ;
#198 = PLANE ( 'NONE',  #11 ) ;
#199 = ORIENTED_EDGE ( 'NONE', *, *, #124, .T. ) ;
#200 = VECTOR ( 'NONE', #206, 1.000000000000000000 ) ;
#201 = FACE_OUTER_BOUND ( 'NONE', #215, .T. ) ;
#202 = DIRECTION ( 'NONE',  ( -1.000000000000000000, 0.000000000000000000, 0.000000000000000000 ) ) ;
#203 = DIRECTION ( 'NONE',  ( -1.000000000000000000, 0.000000000000000000, 0.000000000000000000 ) ) ;
#204 = EDGE_CURVE ( 'NONE', #131, #239, #178, .T. ) ;
#205 = DIRECTION ( 'NONE',  ( -1.000000000000000000, 8.673617379884039416E-16, 0.000000000000000000 ) ) ;
#206 = DIRECTION ( 'NONE',  ( 0.000000000000000000, 0.000000000000000000, -1.000000000000000000 ) ) ;
#207 = VERTEX_POINT ( 'NONE', #290 ) ;
#208 = CARTESIAN_POINT ( 'NONE',  ( -0.1280000000000000027, -0.5779999999999999583, -0.008999999999999999320 ) ) ;
#209 = ADVANCED_FACE ( 'NONE', ( #238 ), #21, .T. ) ;
#210 = STYLED_ITEM ( 'NONE', ( #331 ), #224 ) ;
#211 = VERTEX_POINT ( 'NONE', #150 ) ;
#212 = CARTESIAN_POINT ( 'NONE',  ( -0.1474999999999999922, -0.5975000000000000311, -0.01099999999999999936 ) ) ;
#213 = ORIENTED_EDGE ( 'NONE', *, *, #303, .F. ) ;
#214 =( LENGTH_UNIT ( ) NAMED_UNIT ( * ) SI_UNIT ( $, .METRE. ) );
#215 = EDGE_LOOP ( 'NONE', ( #265, #185, #298, #135 ) ) ;
#216 = LINE ( 'NONE', #117, #305 ) ;
#217 = EDGE_CURVE ( 'NONE', #29, #326, #156, .T. ) ;
#218 = LINE ( 'NONE', #56, #128 ) ;
#219 = VECTOR ( 'NONE', #252, 1.000000000000000000 ) ;
#220 = CARTESIAN_POINT ( 'NONE',  ( 0.1474999999999999922, 0.5975000000000000311, -0.01099999999999999936 ) ) ;
#221 =( NAMED_UNIT ( * ) PLANE_ANGLE_UNIT ( ) SI_UNIT ( $, .RADIAN. ) );
#222 = EDGE_CURVE ( 'NONE', #207, #211, #54, .T. ) ;
#223 = ORIENTED_EDGE ( 'NONE', *, *, #340, .T. ) ;
#224 = ADVANCED_BREP_SHAPE_REPRESENTATION ( 'PL_CMFT_1200', ( #247, #193 ), #141 ) ;
#225 =( LENGTH_UNIT ( ) NAMED_UNIT ( * ) SI_UNIT ( $, .METRE. ) );
#226 = PLANE ( 'NONE',  #116 ) ;
#227 = CARTESIAN_POINT ( 'NONE',  ( -0.1280000000000000027, 0.5779999999999999583, -0.008999999999999999320 ) ) ;
#228 = DIRECTION ( 'NONE',  ( 0.000000000000000000, 0.000000000000000000, 1.000000000000000000 ) ) ;
#229 = ORIENTED_EDGE ( 'NONE', *, *, #248, .F. ) ;
#230 = VECTOR ( 'NONE', #139, 1.000000000000000000 ) ;
#231 = AXIS2_PLACEMENT_3D ( 'NONE', #258, #101, #205 ) ;
#232 = LINE ( 'NONE', #120, #263 ) ;
#233 = FILL_AREA_STYLE_COLOUR ( '', #235 ) ;
#234 = CARTESIAN_POINT ( 'NONE',  ( 0.1280000000000000027, -0.5779999999999999583, -0.008999999999999999320 ) ) ;
#235 = COLOUR_RGB ( '',0.7921568627450980005, 0.8196078431372548767, 0.9294117647058823817 ) ;
#236 = FACE_OUTER_BOUND ( 'NONE', #276, .T. ) ;
#237 = VERTEX_POINT ( 'NONE', #310 ) ;
#238 = FACE_OUTER_BOUND ( 'NONE', #316, .T. ) ;
#239 = VERTEX_POINT ( 'NONE', #240 ) ;
#240 = CARTESIAN_POINT ( 'NONE',  ( -0.1474999999999999922, 0.5975000000000000311, 0.000000000000000000 ) ) ;
#241 = EDGE_LOOP ( 'NONE', ( #49, #35, #180, #223 ) ) ;
#242 = PRESENTATION_LAYER_ASSIGNMENT (  '', '', ( #88 ) ) ;
#243 = DIRECTION ( 'NONE',  ( 0.000000000000000000, -1.000000000000000000, 0.000000000000000000 ) ) ;
#244 = ORIENTED_EDGE ( 'NONE', *, *, #294, .T. ) ;
#245 = CARTESIAN_POINT ( 'NONE',  ( -0.1474999999999999922, -0.5975000000000000311, -0.01099999999999999936 ) ) ;
#246 = ADVANCED_FACE ( 'NONE', ( #72 ), #174, .F. ) ;
#247 = MANIFOLD_SOLID_BREP ( 'PL_CMFT_1200.SAT[1]', #188 ) ;
#248 = EDGE_CURVE ( 'NONE', #22, #237, #32, .T. ) ;
#249 = PRODUCT_CONTEXT ( 'NONE', #251, 'mechanical' ) ;
#250 = ORIENTED_EDGE ( 'NONE', *, *, #2, .F. ) ;
#251 = APPLICATION_CONTEXT ( 'automotive_design' ) ;
#252 = DIRECTION ( 'NONE',  ( 0.000000000000000000, 1.000000000000000000, 0.000000000000000000 ) ) ;
#253 = FACE_OUTER_BOUND ( 'NONE', #278, .T. ) ;
#254 = VECTOR ( 'NONE', #106, 1.000000000000000000 ) ;
#255 = LINE ( 'NONE', #14, #155 ) ;
#256 = EDGE_LOOP ( 'NONE', ( #92, #105, #262, #270 ) ) ;
#257 = LINE ( 'NONE', #99, #181 ) ;
#258 = CARTESIAN_POINT ( 'NONE',  ( 0.1280000000000000027, -0.5779999999999999583, -0.008999999999999999320 ) ) ;
#259 = LINE ( 'NONE', #74, #254 ) ;
#260 = DIRECTION ( 'NONE',  ( 0.000000000000000000, 1.000000000000000000, 0.000000000000000000 ) ) ;
#261 = AXIS2_PLACEMENT_3D ( 'NONE', #245, #34, #243 ) ;
#262 = ORIENTED_EDGE ( 'NONE', *, *, #64, .F. ) ;
#263 = VECTOR ( 'NONE', #228, 1.000000000000000000 ) ;
#264 = PLANE ( 'NONE',  #195 ) ;
#265 = ORIENTED_EDGE ( 'NONE', *, *, #222, .T. ) ;
#266 = CARTESIAN_POINT ( 'NONE',  ( 0.1474999999999999922, -0.5975000000000000311, 0.000000000000000000 ) ) ;
#267 = VERTEX_POINT ( 'NONE', #126 ) ;
#268 = APPLICATION_CONTEXT ( 'automotive_design' ) ;
#269 = DIRECTION ( 'NONE',  ( 0.000000000000000000, 0.000000000000000000, -1.000000000000000000 ) ) ;
#270 = ORIENTED_EDGE ( 'NONE', *, *, #283, .F. ) ;
#271 = VECTOR ( 'NONE', #197, 1.000000000000000000 ) ;
#272 = EDGE_CURVE ( 'NONE', #4, #326, #218, .T. ) ;
#273 = CARTESIAN_POINT ( 'NONE',  ( -0.1280000000000000027, -0.5779999999999999583, -0.008999999999999999320 ) ) ;
#274 =( NAMED_UNIT ( * ) SI_UNIT ( $, .STERADIAN. ) SOLID_ANGLE_UNIT ( ) );
#275 = EDGE_CURVE ( 'NONE', #81, #42, #216, .T. ) ;
#276 = EDGE_LOOP ( 'NONE', ( #109, #53, #69, #319 ) ) ;
#277 = EDGE_LOOP ( 'NONE', ( #306, #287, #24, #83 ) ) ;
#278 = EDGE_LOOP ( 'NONE', ( #199, #191, #342, #344 ) ) ;
#279 = EDGE_CURVE ( 'NONE', #169, #131, #30, .T. ) ;
#280 = DIRECTION ( 'NONE',  ( 1.000000000000000000, 0.000000000000000000, 0.000000000000000000 ) ) ;
#281 = ORIENTED_EDGE ( 'NONE', *, *, #222, .F. ) ;
#282 = PLANE ( 'NONE',  #162 ) ;
#283 = EDGE_CURVE ( 'NONE', #267, #22, #160, .T. ) ;
#284 = CARTESIAN_POINT ( 'NONE',  ( 0.1280000000000000027, 0.5779999999999999583, -0.008999999999999999320 ) ) ;
#285 = CARTESIAN_POINT ( 'NONE',  ( 0.1474999999999999922, -0.5975000000000000311, 0.000000000000000000 ) ) ;
#286 = CARTESIAN_POINT ( 'NONE',  ( 0.1474999999999999922, -0.5975000000000000311, -0.01099999999999999936 ) ) ;
#287 = ORIENTED_EDGE ( 'NONE', *, *, #204, .F. ) ;
#288 = DIRECTION ( 'NONE',  ( 0.000000000000000000, 0.000000000000000000, 1.000000000000000000 ) ) ;
#289 = ORIENTED_EDGE ( 'NONE', *, *, #64, .T. ) ;
#290 = CARTESIAN_POINT ( 'NONE',  ( 0.1474999999999999922, -0.5975000000000000311, 0.000000000000000000 ) ) ;
#291 = ORIENTED_EDGE ( 'NONE', *, *, #275, .F. ) ;
#292 = UNCERTAINTY_MEASURE_WITH_UNIT (LENGTH_MEASURE( 1.000000000000000082E-05 ), #225, 'distance_accuracy_value', 'NONE');
#293 = ORIENTED_EDGE ( 'NONE', *, *, #111, .T. ) ;
#294 = EDGE_CURVE ( 'NONE', #3, #308, #113, .T. ) ;
#295 = VECTOR ( 'NONE', #84, 1.000000000000000000 ) ;
#296 = FACE_OUTER_BOUND ( 'NONE', #277, .T. ) ;
#297 = DIRECTION ( 'NONE',  ( -1.000000000000000000, 8.673617379884039416E-16, 0.000000000000000000 ) ) ;
#298 = ORIENTED_EDGE ( 'NONE', *, *, #85, .F. ) ;
#299 = MECHANICAL_DESIGN_GEOMETRIC_PRESENTATION_REPRESENTATION (  '', ( #210 ), #175 ) ;
#300 = APPLICATION_PROTOCOL_DEFINITION ( 'draft international standard', 'automotive_design', 1998, #268 ) ;
#301 = DIRECTION ( 'NONE',  ( 7.526935760170549524E-16, 1.000000000000000000, 0.000000000000000000 ) ) ;
#302 = DIRECTION ( 'NONE',  ( 0.000000000000000000, 0.000000000000000000, -1.000000000000000000 ) ) ;
#303 = EDGE_CURVE ( 'NONE', #308, #29, #321, .T. ) ;
#304 = CARTESIAN_POINT ( 'NONE',  ( -0.1280000000000000027, 0.5779999999999999583, -0.008999999999999999320 ) ) ;
#305 = VECTOR ( 'NONE', #140, 1.000000000000000000 ) ;
#306 = ORIENTED_EDGE ( 'NONE', *, *, #2, .T. ) ;
#307 = VECTOR ( 'NONE', #194, 1.000000000000000000 ) ;
#308 = VERTEX_POINT ( 'NONE', #86 ) ;
#309 = ADVANCED_FACE ( 'NONE', ( #296 ), #110, .F. ) ;
#310 = CARTESIAN_POINT ( 'NONE',  ( 0.1474999999999999922, 0.5975000000000000311, 0.000000000000000000 ) ) ;
#311 = DIRECTION ( 'NONE',  ( 0.000000000000000000, 0.000000000000000000, 1.000000000000000000 ) ) ;
#312 = FACE_OUTER_BOUND ( 'NONE', #241, .T. ) ;
#313 = DIRECTION ( 'NONE',  ( -1.000000000000000000, 8.673617379884039416E-16, 0.000000000000000000 ) ) ;
#314 = ORIENTED_EDGE ( 'NONE', *, *, #303, .T. ) ;
#315 = FACE_OUTER_BOUND ( 'NONE', #112, .T. ) ;
#316 = EDGE_LOOP ( 'NONE', ( #133, #137, #77, #68 ) ) ;
#317 =( NAMED_UNIT ( * ) SI_UNIT ( $, .STERADIAN. ) SOLID_ANGLE_UNIT ( ) );
#318 = EDGE_LOOP ( 'NONE', ( #244, #67, #291, #166 ) ) ;
#319 = ORIENTED_EDGE ( 'NONE', *, *, #144, .T. ) ;
#320 = PRODUCT_DEFINITION_SHAPE ( 'NONE', 'NONE',  #8 ) ;
#321 = LINE ( 'NONE', #1, #87 ) ;
#322 = VECTOR ( 'NONE', #134, 1.000000000000000000 ) ;
#323 = SURFACE_STYLE_USAGE ( .BOTH. , #161 ) ;
#324 = DIRECTION ( 'NONE',  ( 0.000000000000000000, 1.000000000000000000, 0.000000000000000000 ) ) ;
#325 = FILL_AREA_STYLE_COLOUR ( '', #165 ) ;
#326 = VERTEX_POINT ( 'NONE', #5 ) ;
#327 = APPLICATION_PROTOCOL_DEFINITION ( 'draft international standard', 'automotive_design', 1998, #251 ) ;
#328 = VECTOR ( 'NONE', #313, 1.000000000000000000 ) ;
#329 = CARTESIAN_POINT ( 'NONE',  ( 0.000000000000000000, 0.000000000000000000, 0.000000000000000000 ) ) ;
#330 = DIRECTION ( 'NONE',  ( 0.000000000000000000, 0.000000000000000000, -1.000000000000000000 ) ) ;
#331 = PRESENTATION_STYLE_ASSIGNMENT (( #95 ) ) ;
#332 = DIRECTION ( 'NONE',  ( -1.000000000000000000, 7.526935760170549524E-16, 0.000000000000000000 ) ) ;
#333 = ADVANCED_FACE ( 'NONE', ( #114 ), #187, .T. ) ;
#334 = VECTOR ( 'NONE', #324, 1.000000000000000000 ) ;
#335 = FACE_BOUND ( 'NONE', #123, .T. ) ;
#336 = CARTESIAN_POINT ( 'NONE',  ( -0.1474999999999999922, -0.5975000000000000311, 0.000000000000000000 ) ) ;
#337 = FILL_AREA_STYLE ('',( #233 ) ) ;
#338 = LINE ( 'NONE', #208, #146 ) ;
#339 = VECTOR ( 'NONE', #190, 1.000000000000000000 ) ;
#340 = EDGE_CURVE ( 'NONE', #55, #4, #89, .T. ) ;
#341 = DIRECTION ( 'NONE',  ( -1.000000000000000000, 0.000000000000000000, 0.000000000000000000 ) ) ;
#342 = ORIENTED_EDGE ( 'NONE', *, *, #36, .F. ) ;
#343 = DIRECTION ( 'NONE',  ( 1.000000000000000000, 0.000000000000000000, 0.000000000000000000 ) ) ;
#344 = ORIENTED_EDGE ( 'NONE', *, *, #272, .T. ) ;
ENDSEC;
END-ISO-10303-21;
