ISO-10303-21;
HEADER;
FILE_DESCRIPTION (( 'STEP AP214' ),
    '1' );
FILE_NAME ('HCL PL 1200.STEP',
    '2022-11-28T08:03:39',
    ( '' ),
    ( '' ),
    'SwSTEP 2.0',
    'SolidWorks 2020',
    '' );
FILE_SCHEMA (( 'AUTOMOTIVE_DESIGN' ));
ENDSEC;

DATA;
#1 = VECTOR ( 'NONE', #231, 1000.000000000000000 ) ;
#2 = ORIENTED_EDGE ( 'NONE', *, *, #326, .T. ) ;
#3 = CARTESIAN_POINT ( 'NONE',  ( -147.5000000000000000, -597.5000000000000000, -11.00000000000000000 ) ) ;
#4 = ORIENTED_EDGE ( 'NONE', *, *, #253, .F. ) ;
#5 = ADVANCED_FACE ( 'NONE', ( #306 ), #187, .F. ) ;
#6 = STYLED_ITEM ( 'NONE', ( #169 ), #302 ) ;
#7 = DIRECTION ( 'NONE',  ( -6.960677721521329943E-17, -1.000000000000000000, 0.000000000000000000 ) ) ;
#8 = DIRECTION ( 'NONE',  ( 6.960677721521329943E-17, 1.000000000000000000, 0.000000000000000000 ) ) ;
#9 = CARTESIAN_POINT ( 'NONE',  ( 147.5000000000000000, -597.5000000000000000, -11.00000000000000000 ) ) ;
#10 = DIRECTION ( 'NONE',  ( -1.000000000000000000, 5.119267073447579120E-16, 0.000000000000000000 ) ) ;
#11 = ORIENTED_EDGE ( 'NONE', *, *, #250, .F. ) ;
#12 = CARTESIAN_POINT ( 'NONE',  ( 125.5000000000000000, -575.5000000000000000, -9.000000000000000000 ) ) ;
#13 = FACE_OUTER_BOUND ( 'NONE', #224, .T. ) ;
#14 = VERTEX_POINT ( 'NONE', #44 ) ;
#15 = DIRECTION ( 'NONE',  ( 0.000000000000000000, 0.000000000000000000, -1.000000000000000000 ) ) ;
#16 = DIRECTION ( 'NONE',  ( -1.660640339159219957E-16, -1.000000000000000000, 0.000000000000000000 ) ) ;
#17 = ORIENTED_EDGE ( 'NONE', *, *, #129, .T. ) ;
#18 = ORIENTED_EDGE ( 'NONE', *, *, #243, .F. ) ;
#19 = VECTOR ( 'NONE', #242, 1000.000000000000000 ) ;
#20 = SURFACE_SIDE_STYLE ('',( #255 ) ) ;
#21 = CARTESIAN_POINT ( 'NONE',  ( 125.5000000000000000, 575.5000000000000000, -11.00000000000000000 ) ) ;
#22 = FACE_OUTER_BOUND ( 'NONE', #325, .T. ) ;
#23 = CARTESIAN_POINT ( 'NONE',  ( 147.5000000000000000, -597.5000000000000000, -11.00000000000000000 ) ) ;
#24 = EDGE_CURVE ( 'NONE', #208, #14, #338, .T. ) ;
#25 = ORIENTED_EDGE ( 'NONE', *, *, #232, .F. ) ;
#26 = AXIS2_PLACEMENT_3D ( 'NONE', #285, #313, #69 ) ;
#27 = EDGE_CURVE ( 'NONE', #117, #335, #309, .T. ) ;
#28 = VERTEX_POINT ( 'NONE', #197 ) ;
#29 = PRODUCT_DEFINITION_CONTEXT ( 'detailed design', #299, 'design' ) ;
#30 = ORIENTED_EDGE ( 'NONE', *, *, #137, .F. ) ;
#31 = LINE ( 'NONE', #132, #177 ) ;
#32 = AXIS2_PLACEMENT_3D ( 'NONE', #3, #168, #246 ) ;
#33 = ADVANCED_FACE ( 'NONE', ( #267 ), #36, .F. ) ;
#34 = ORIENTED_EDGE ( 'NONE', *, *, #229, .F. ) ;
#35 = CARTESIAN_POINT ( 'NONE',  ( -147.5000000000000000, -597.5000000000000000, -11.00000000000000000 ) ) ;
#36 = PLANE ( 'NONE',  #71 ) ;
#37 = AXIS2_PLACEMENT_3D ( 'NONE', #84, #189, #60 ) ;
#38 = DIRECTION ( 'NONE',  ( -1.000000000000000000, 5.119267073447579120E-16, 0.000000000000000000 ) ) ;
#39 = DIRECTION ( 'NONE',  ( -1.160596234338389954E-16, -1.000000000000000000, 0.000000000000000000 ) ) ;
#40 = DIRECTION ( 'NONE',  ( -1.000000000000000000, 1.160596234338389954E-16, 0.000000000000000000 ) ) ;
#41 = EDGE_CURVE ( 'NONE', #53, #43, #109, .T. ) ;
#42 = ORIENTED_EDGE ( 'NONE', *, *, #27, .T. ) ;
#43 = VERTEX_POINT ( 'NONE', #301 ) ;
#44 = CARTESIAN_POINT ( 'NONE',  ( -125.5000000000000000, 575.5000000000000000, -11.00000000000000000 ) ) ;
#45 = FILL_AREA_STYLE_COLOUR ( '', #336 ) ;
#46 = EDGE_CURVE ( 'NONE', #276, #53, #63, .T. ) ;
#47 = DIRECTION ( 'NONE',  ( -6.960677721521329943E-17, -1.000000000000000000, 0.000000000000000000 ) ) ;
#48 = CARTESIAN_POINT ( 'NONE',  ( -125.5000000000000000, -575.5000000000000000, -9.000000000000000000 ) ) ;
#49 = EDGE_CURVE ( 'NONE', #276, #160, #167, .T. ) ;
#50 = FILL_AREA_STYLE ('',( #45 ) ) ;
#51 = LINE ( 'NONE', #100, #202 ) ;
#52 = AXIS2_PLACEMENT_3D ( 'NONE', #278, #330, #221 ) ;
#53 = VERTEX_POINT ( 'NONE', #226 ) ;
#54 = ADVANCED_FACE ( 'NONE', ( #124 ), #203, .F. ) ;
#55 = ORIENTED_EDGE ( 'NONE', *, *, #46, .F. ) ;
#56 = CARTESIAN_POINT ( 'NONE',  ( -125.5000000000000000, 575.5000000000000000, -9.000000000000000000 ) ) ;
#57 = LINE ( 'NONE', #79, #90 ) ;
#58 = VECTOR ( 'NONE', #268, 1000.000000000000000 ) ;
#59 =( NAMED_UNIT ( * ) SI_UNIT ( $, .STERADIAN. ) SOLID_ANGLE_UNIT ( ) );
#60 = DIRECTION ( 'NONE',  ( -1.660640339159219957E-16, -1.000000000000000000, 0.000000000000000000 ) ) ;
#61 = EDGE_LOOP ( 'NONE', ( #65, #91, #30, #179 ) ) ;
#62 = PLANE ( 'NONE',  #198 ) ;
#63 = LINE ( 'NONE', #241, #174 ) ;
#64 = SURFACE_STYLE_USAGE ( .BOTH. , #305 ) ;
#65 = ORIENTED_EDGE ( 'NONE', *, *, #92, .T. ) ;
#66 = CARTESIAN_POINT ( 'NONE',  ( 147.5000000000000000, -597.5000000000000000, -11.00000000000000000 ) ) ;
#67 = CARTESIAN_POINT ( 'NONE',  ( 0.000000000000000000, 0.000000000000000000, 0.000000000000000000 ) ) ;
#68 = ORIENTED_EDGE ( 'NONE', *, *, #314, .T. ) ;
#69 = DIRECTION ( 'NONE',  ( -1.000000000000000000, 6.960677721521329943E-17, 0.000000000000000000 ) ) ;
#70 = DIRECTION ( 'NONE',  ( -1.000000000000000000, 5.119267073447579120E-16, 0.000000000000000000 ) ) ;
#71 = AXIS2_PLACEMENT_3D ( 'NONE', #238, #8, #140 ) ;
#72 = CARTESIAN_POINT ( 'NONE',  ( -147.5000000000000000, 597.5000000000000000, 0.000000000000000000 ) ) ;
#73 = VECTOR ( 'NONE', #113, 1000.000000000000000 ) ;
#74 = ORIENTED_EDGE ( 'NONE', *, *, #263, .F. ) ;
#75 = VERTEX_POINT ( 'NONE', #252 ) ;
#76 = CARTESIAN_POINT ( 'NONE',  ( -125.5000000000000000, -575.5000000000000000, -11.00000000000000000 ) ) ;
#77 = ORIENTED_EDGE ( 'NONE', *, *, #319, .T. ) ;
#78 = MECHANICAL_DESIGN_GEOMETRIC_PRESENTATION_REPRESENTATION (  '', ( #6 ), #172 ) ;
#79 = CARTESIAN_POINT ( 'NONE',  ( 147.5000000000000000, 597.5000000000000000, -11.00000000000000000 ) ) ;
#80 = DIRECTION ( 'NONE',  ( 0.000000000000000000, 0.000000000000000000, 1.000000000000000000 ) ) ;
#81 = PRODUCT_CONTEXT ( 'NONE', #186, 'mechanical' ) ;
#82 = ORIENTED_EDGE ( 'NONE', *, *, #122, .T. ) ;
#83 = CARTESIAN_POINT ( 'NONE',  ( 125.5000000000000000, 575.5000000000000000, -9.000000000000000000 ) ) ;
#84 = CARTESIAN_POINT ( 'NONE',  ( 125.5000000000000000, 575.5000000000000000, -9.000000000000000000 ) ) ;
#85 = ORIENTED_EDGE ( 'NONE', *, *, #153, .T. ) ;
#86 =( LENGTH_UNIT ( ) NAMED_UNIT ( * ) SI_UNIT ( .MILLI., .METRE. ) );
#87 =( LENGTH_UNIT ( ) NAMED_UNIT ( * ) SI_UNIT ( .MILLI., .METRE. ) );
#88 = DIRECTION ( 'NONE',  ( 6.960677721521329943E-17, 1.000000000000000000, 0.000000000000000000 ) ) ;
#89 = LINE ( 'NONE', #240, #339 ) ;
#90 = VECTOR ( 'NONE', #80, 1000.000000000000000 ) ;
#91 = ORIENTED_EDGE ( 'NONE', *, *, #225, .F. ) ;
#92 = EDGE_CURVE ( 'NONE', #14, #143, #51, .T. ) ;
#93 =( NAMED_UNIT ( * ) SI_UNIT ( $, .STERADIAN. ) SOLID_ANGLE_UNIT ( ) );
#94 = CARTESIAN_POINT ( 'NONE',  ( -125.5000000000000000, -575.5000000000000000, -11.00000000000000000 ) ) ;
#95 = VECTOR ( 'NONE', #16, 1000.000000000000000 ) ;
#96 = DIRECTION ( 'NONE',  ( 0.000000000000000000, 0.000000000000000000, 1.000000000000000000 ) ) ;
#97 = ADVANCED_FACE ( 'NONE', ( #22, #342 ), #341, .T. ) ;
#98 = DIRECTION ( 'NONE',  ( 1.000000000000000000, -6.960677721521329943E-17, 0.000000000000000000 ) ) ;
#99 = PRODUCT ( 'HCL PL 1200', 'HCL PL 1200', '', ( #81 ) ) ;
#100 = CARTESIAN_POINT ( 'NONE',  ( -125.5000000000000000, 575.5000000000000000, -11.00000000000000000 ) ) ;
#101 = FACE_OUTER_BOUND ( 'NONE', #288, .T. ) ;
#102 = VECTOR ( 'NONE', #173, 1000.000000000000000 ) ;
#103 = ADVANCED_FACE ( 'NONE', ( #204 ), #254, .F. ) ;
#104 = VERTEX_POINT ( 'NONE', #72 ) ;
#105 = LINE ( 'NONE', #191, #178 ) ;
#106 = ORIENTED_EDGE ( 'NONE', *, *, #326, .F. ) ;
#107 = LINE ( 'NONE', #110, #95 ) ;
#108 = PLANE ( 'NONE',  #37 ) ;
#109 = LINE ( 'NONE', #298, #158 ) ;
#110 = CARTESIAN_POINT ( 'NONE',  ( 125.5000000000000000, 575.5000000000000000, -9.000000000000000000 ) ) ;
#111 = CARTESIAN_POINT ( 'NONE',  ( 147.5000000000000000, 597.5000000000000000, -11.00000000000000000 ) ) ;
#112 = ORIENTED_EDGE ( 'NONE', *, *, #157, .F. ) ;
#113 = DIRECTION ( 'NONE',  ( 0.000000000000000000, 0.000000000000000000, -1.000000000000000000 ) ) ;
#114 = VECTOR ( 'NONE', #96, 1000.000000000000000 ) ;
#115 = FACE_OUTER_BOUND ( 'NONE', #127, .T. ) ;
#116 = ORIENTED_EDGE ( 'NONE', *, *, #122, .F. ) ;
#117 = VERTEX_POINT ( 'NONE', #340 ) ;
#118 = CARTESIAN_POINT ( 'NONE',  ( 125.5000000000000000, -575.5000000000000000, -9.000000000000000000 ) ) ;
#119 = VECTOR ( 'NONE', #214, 1000.000000000000000 ) ;
#120 = ORIENTED_EDGE ( 'NONE', *, *, #92, .F. ) ;
#121 = LINE ( 'NONE', #48, #163 ) ;
#122 = EDGE_CURVE ( 'NONE', #104, #28, #150, .T. ) ;
#123 = DIRECTION ( 'NONE',  ( 0.000000000000000000, 0.000000000000000000, -1.000000000000000000 ) ) ;
#124 = FACE_OUTER_BOUND ( 'NONE', #270, .T. ) ;
#125 = ORIENTED_EDGE ( 'NONE', *, *, #24, .F. ) ;
#126 = VECTOR ( 'NONE', #304, 1000.000000000000000 ) ;
#127 = EDGE_LOOP ( 'NONE', ( #234, #112, #292, #196 ) ) ;
#128 = ORIENTED_EDGE ( 'NONE', *, *, #199, .T. ) ;
#129 = EDGE_CURVE ( 'NONE', #335, #276, #152, .T. ) ;
#130 = EDGE_LOOP ( 'NONE', ( #184, #25, #265, #223 ) ) ;
#131 = VECTOR ( 'NONE', #322, 1000.000000000000000 ) ;
#132 = CARTESIAN_POINT ( 'NONE',  ( 125.5000000000000000, 575.5000000000000000, -11.00000000000000000 ) ) ;
#133 = ORIENTED_EDGE ( 'NONE', *, *, #199, .F. ) ;
#134 = CARTESIAN_POINT ( 'NONE',  ( -147.5000000000000000, -597.5000000000000000, 0.000000000000000000 ) ) ;
#135 = ORIENTED_EDGE ( 'NONE', *, *, #153, .F. ) ;
#136 =( GEOMETRIC_REPRESENTATION_CONTEXT ( 3 ) GLOBAL_UNCERTAINTY_ASSIGNED_CONTEXT ( ( #316 ) ) GLOBAL_UNIT_ASSIGNED_CONTEXT ( ( #87, #244, #272 ) ) REPRESENTATION_CONTEXT ( 'NONE', 'WORKASPACE' ) );
#137 = EDGE_CURVE ( 'NONE', #260, #213, #175, .T. ) ;
#138 = DIRECTION ( 'NONE',  ( 6.960677721521329943E-17, 1.000000000000000000, 0.000000000000000000 ) ) ;
#139 = LINE ( 'NONE', #275, #323 ) ;
#140 = DIRECTION ( 'NONE',  ( 1.000000000000000000, -6.960677721521329943E-17, 0.000000000000000000 ) ) ;
#141 = CARTESIAN_POINT ( 'NONE',  ( -125.5000000000000000, 575.5000000000000000, -9.000000000000000000 ) ) ;
#142 = SHAPE_DEFINITION_REPRESENTATION ( #311, #302 ) ;
#143 = VERTEX_POINT ( 'NONE', #21 ) ;
#144 = LINE ( 'NONE', #12, #73 ) ;
#145 =( NAMED_UNIT ( * ) PLANE_ANGLE_UNIT ( ) SI_UNIT ( $, .RADIAN. ) );
#146 = ORIENTED_EDGE ( 'NONE', *, *, #49, .F. ) ;
#147 = PRODUCT_RELATED_PRODUCT_CATEGORY ( 'part', '', ( #99 ) ) ;
#148 = ORIENTED_EDGE ( 'NONE', *, *, #319, .F. ) ;
#149 = CARTESIAN_POINT ( 'NONE',  ( 125.5000000000000000, -575.5000000000000000, -9.000000000000000000 ) ) ;
#150 = LINE ( 'NONE', #310, #185 ) ;
#151 = ADVANCED_FACE ( 'NONE', ( #101 ), #279, .T. ) ;
#152 = LINE ( 'NONE', #23, #1 ) ;
#153 = EDGE_CURVE ( 'NONE', #287, #208, #121, .T. ) ;
#154 = MANIFOLD_SOLID_BREP ( 'HCL PL 1200.SAT', #331 ) ;
#155 = VECTOR ( 'NONE', #138, 1000.000000000000000 ) ;
#156 = UNCERTAINTY_MEASURE_WITH_UNIT (LENGTH_MEASURE( 1.000000000000000082E-05 ), #215, 'distance_accuracy_value', 'NONE');
#157 = EDGE_CURVE ( 'NONE', #328, #75, #144, .T. ) ;
#158 = VECTOR ( 'NONE', #216, 1000.000000000000000 ) ;
#159 = ORIENTED_EDGE ( 'NONE', *, *, #286, .T. ) ;
#160 = VERTEX_POINT ( 'NONE', #228 ) ;
#161 = LINE ( 'NONE', #235, #155 ) ;
#162 = ORIENTED_EDGE ( 'NONE', *, *, #258, .F. ) ;
#163 = VECTOR ( 'NONE', #123, 1000.000000000000000 ) ;
#164 = FACE_OUTER_BOUND ( 'NONE', #182, .T. ) ;
#165 = DIRECTION ( 'NONE',  ( -1.660640339159219957E-16, -1.000000000000000000, 0.000000000000000000 ) ) ;
#166 = ORIENTED_EDGE ( 'NONE', *, *, #137, .T. ) ;
#167 = LINE ( 'NONE', #273, #114 ) ;
#168 = DIRECTION ( 'NONE',  ( 6.960677721521329943E-17, 1.000000000000000000, 0.000000000000000000 ) ) ;
#169 = PRESENTATION_STYLE_ASSIGNMENT (( #64 ) ) ;
#170 = ORIENTED_EDGE ( 'NONE', *, *, #27, .F. ) ;
#171 = ORIENTED_EDGE ( 'NONE', *, *, #253, .T. ) ;
#172 =( GEOMETRIC_REPRESENTATION_CONTEXT ( 3 ) GLOBAL_UNCERTAINTY_ASSIGNED_CONTEXT ( ( #156 ) ) GLOBAL_UNIT_ASSIGNED_CONTEXT ( ( #215, #145, #93 ) ) REPRESENTATION_CONTEXT ( 'NONE', 'WORKASPACE' ) );
#173 = DIRECTION ( 'NONE',  ( 1.000000000000000000, -6.960677721521329943E-17, 0.000000000000000000 ) ) ;
#174 = VECTOR ( 'NONE', #332, 1000.000000000000000 ) ;
#175 = LINE ( 'NONE', #317, #102 ) ;
#176 = CARTESIAN_POINT ( 'NONE',  ( 0.000000000000000000, 0.000000000000000000, -9.000000000000000000 ) ) ;
#177 = VECTOR ( 'NONE', #165, 1000.000000000000000 ) ;
#178 = VECTOR ( 'NONE', #183, 1000.000000000000000 ) ;
#179 = ORIENTED_EDGE ( 'NONE', *, *, #250, .T. ) ;
#180 = ORIENTED_EDGE ( 'NONE', *, *, #263, .T. ) ;
#181 = CARTESIAN_POINT ( 'NONE',  ( 125.5000000000000000, -575.5000000000000000, -9.000000000000000000 ) ) ;
#182 = EDGE_LOOP ( 'NONE', ( #148, #116, #34, #162 ) ) ;
#183 = DIRECTION ( 'NONE',  ( 6.960677721521329943E-17, 1.000000000000000000, 0.000000000000000000 ) ) ;
#184 = ORIENTED_EDGE ( 'NONE', *, *, #229, .T. ) ;
#185 = VECTOR ( 'NONE', #256, 1000.000000000000000 ) ;
#186 = APPLICATION_CONTEXT ( 'automotive_design' ) ;
#187 = PLANE ( 'NONE',  #259 ) ;
#188 = LINE ( 'NONE', #141, #58 ) ;
#189 = DIRECTION ( 'NONE',  ( 1.000000000000000000, -1.660640339159219957E-16, 0.000000000000000000 ) ) ;
#190 = EDGE_LOOP ( 'NONE', ( #120, #125, #106, #18 ) ) ;
#191 = CARTESIAN_POINT ( 'NONE',  ( -147.5000000000000000, -597.5000000000000000, -11.00000000000000000 ) ) ;
#192 = FILL_AREA_STYLE_COLOUR ( '', #230 ) ;
#193 = CARTESIAN_POINT ( 'NONE',  ( -147.5000000000000000, 597.5000000000000000, -11.00000000000000000 ) ) ;
#194 = PRESENTATION_LAYER_ASSIGNMENT (  '', '', ( #343 ) ) ;
#195 = APPLICATION_PROTOCOL_DEFINITION ( 'draft international standard', 'automotive_design', 1998, #299 ) ;
#196 = ORIENTED_EDGE ( 'NONE', *, *, #225, .T. ) ;
#197 = CARTESIAN_POINT ( 'NONE',  ( 147.5000000000000000, 597.5000000000000000, 0.000000000000000000 ) ) ;
#198 = AXIS2_PLACEMENT_3D ( 'NONE', #35, #211, #239 ) ;
#199 = EDGE_CURVE ( 'NONE', #335, #28, #57, .T. ) ;
#200 = SURFACE_STYLE_USAGE ( .BOTH. , #20 ) ;
#201 = DIRECTION ( 'NONE',  ( -0.000000000000000000, 0.000000000000000000, -1.000000000000000000 ) ) ;
#202 = VECTOR ( 'NONE', #98, 1000.000000000000000 ) ;
#203 = PLANE ( 'NONE',  #26 ) ;
#204 = FACE_OUTER_BOUND ( 'NONE', #289, .T. ) ;
#205 =( GEOMETRIC_REPRESENTATION_CONTEXT ( 3 ) GLOBAL_UNCERTAINTY_ASSIGNED_CONTEXT ( ( #207 ) ) GLOBAL_UNIT_ASSIGNED_CONTEXT ( ( #86, #274, #59 ) ) REPRESENTATION_CONTEXT ( 'NONE', 'WORKASPACE' ) );
#206 = CARTESIAN_POINT ( 'NONE',  ( 0.000000000000000000, 0.000000000000000000, -11.00000000000000000 ) ) ;
#207 = UNCERTAINTY_MEASURE_WITH_UNIT (LENGTH_MEASURE( 1.000000000000000082E-05 ), #86, 'distance_accuracy_value', 'NONE');
#208 = VERTEX_POINT ( 'NONE', #76 ) ;
#209 = CARTESIAN_POINT ( 'NONE',  ( -147.5000000000000000, -597.5000000000000000, 0.000000000000000000 ) ) ;
#210 = ORIENTED_EDGE ( 'NONE', *, *, #46, .T. ) ;
#211 = DIRECTION ( 'NONE',  ( 1.000000000000000000, -6.960677721521329943E-17, 0.000000000000000000 ) ) ;
#212 = AXIS2_PLACEMENT_3D ( 'NONE', #266, #236, #7 ) ;
#213 = VERTEX_POINT ( 'NONE', #329 ) ;
#214 = DIRECTION ( 'NONE',  ( 0.000000000000000000, 0.000000000000000000, 1.000000000000000000 ) ) ;
#215 =( LENGTH_UNIT ( ) NAMED_UNIT ( * ) SI_UNIT ( .MILLI., .METRE. ) );
#216 = DIRECTION ( 'NONE',  ( 0.000000000000000000, 0.000000000000000000, 1.000000000000000000 ) ) ;
#217 = LINE ( 'NONE', #295, #119 ) ;
#218 = ADVANCED_FACE ( 'NONE', ( #333 ), #271, .F. ) ;
#219 = ORIENTED_EDGE ( 'NONE', *, *, #157, .T. ) ;
#220 = PLANE ( 'NONE',  #212 ) ;
#221 = DIRECTION ( 'NONE',  ( 6.960677721521329943E-17, 1.000000000000000000, 0.000000000000000000 ) ) ;
#222 = EDGE_LOOP ( 'NONE', ( #77, #146, #245, #128 ) ) ;
#223 = ORIENTED_EDGE ( 'NONE', *, *, #41, .T. ) ;
#224 = EDGE_LOOP ( 'NONE', ( #248, #11, #74, #85 ) ) ;
#225 = EDGE_CURVE ( 'NONE', #213, #143, #262, .T. ) ;
#226 = CARTESIAN_POINT ( 'NONE',  ( -147.5000000000000000, -597.5000000000000000, -11.00000000000000000 ) ) ;
#227 = PRESENTATION_STYLE_ASSIGNMENT (( #200 ) ) ;
#228 = CARTESIAN_POINT ( 'NONE',  ( 147.5000000000000000, -597.5000000000000000, 0.000000000000000000 ) ) ;
#229 = EDGE_CURVE ( 'NONE', #43, #104, #324, .T. ) ;
#230 = COLOUR_RGB ( '',0.7921568627450980005, 0.8196078431372548767, 0.9294117647058823817 ) ;
#231 = DIRECTION ( 'NONE',  ( -1.160596234338389954E-16, -1.000000000000000000, 0.000000000000000000 ) ) ;
#232 = EDGE_CURVE ( 'NONE', #117, #104, #217, .T. ) ;
#233 = AXIS2_PLACEMENT_3D ( 'NONE', #206, #201, #47 ) ;
#234 = ORIENTED_EDGE ( 'NONE', *, *, #243, .T. ) ;
#235 = CARTESIAN_POINT ( 'NONE',  ( -125.5000000000000000, -575.5000000000000000, -9.000000000000000000 ) ) ;
#236 = DIRECTION ( 'NONE',  ( -0.000000000000000000, 0.000000000000000000, -1.000000000000000000 ) ) ;
#237 = PRESENTATION_LAYER_ASSIGNMENT (  '', '', ( #6 ) ) ;
#238 = CARTESIAN_POINT ( 'NONE',  ( -125.5000000000000000, 575.5000000000000000, -9.000000000000000000 ) ) ;
#239 = DIRECTION ( 'NONE',  ( -6.960677721521329943E-17, -1.000000000000000000, 0.000000000000000000 ) ) ;
#240 = CARTESIAN_POINT ( 'NONE',  ( 125.5000000000000000, -575.5000000000000000, -11.00000000000000000 ) ) ;
#241 = CARTESIAN_POINT ( 'NONE',  ( -147.5000000000000000, -597.5000000000000000, -11.00000000000000000 ) ) ;
#242 = DIRECTION ( 'NONE',  ( -1.000000000000000000, 6.960677721521329943E-17, 0.000000000000000000 ) ) ;
#243 = EDGE_CURVE ( 'NONE', #143, #75, #31, .T. ) ;
#244 =( NAMED_UNIT ( * ) PLANE_ANGLE_UNIT ( ) SI_UNIT ( $, .RADIAN. ) );
#245 = ORIENTED_EDGE ( 'NONE', *, *, #129, .F. ) ;
#246 = DIRECTION ( 'NONE',  ( 1.000000000000000000, -6.960677721521329943E-17, 0.000000000000000000 ) ) ;
#247 = FILL_AREA_STYLE ('',( #192 ) ) ;
#248 = ORIENTED_EDGE ( 'NONE', *, *, #24, .T. ) ;
#249 = LINE ( 'NONE', #181, #315 ) ;
#250 = EDGE_CURVE ( 'NONE', #260, #14, #188, .T. ) ;
#251 = AXIS2_PLACEMENT_3D ( 'NONE', #176, #281, #283 ) ;
#252 = CARTESIAN_POINT ( 'NONE',  ( 125.5000000000000000, -575.5000000000000000, -11.00000000000000000 ) ) ;
#253 = EDGE_CURVE ( 'NONE', #328, #287, #249, .T. ) ;
#254 = PLANE ( 'NONE',  #264 ) ;
#255 = SURFACE_STYLE_FILL_AREA ( #50 ) ;
#256 = DIRECTION ( 'NONE',  ( 1.000000000000000000, -6.960677721521329943E-17, 0.000000000000000000 ) ) ;
#257 = AXIS2_PLACEMENT_3D ( 'NONE', #67, #296, #327 ) ;
#258 = EDGE_CURVE ( 'NONE', #160, #43, #291, .T. ) ;
#259 = AXIS2_PLACEMENT_3D ( 'NONE', #66, #40, #334 ) ;
#260 = VERTEX_POINT ( 'NONE', #56 ) ;
#261 = ORIENTED_EDGE ( 'NONE', *, *, #41, .F. ) ;
#262 = LINE ( 'NONE', #83, #284 ) ;
#263 = EDGE_CURVE ( 'NONE', #287, #260, #161, .T. ) ;
#264 = AXIS2_PLACEMENT_3D ( 'NONE', #149, #312, #70 ) ;
#265 = ORIENTED_EDGE ( 'NONE', *, *, #286, .F. ) ;
#266 = CARTESIAN_POINT ( 'NONE',  ( 0.000000000000000000, 0.000000000000000000, 0.000000000000000000 ) ) ;
#267 = FACE_OUTER_BOUND ( 'NONE', #61, .T. ) ;
#268 = DIRECTION ( 'NONE',  ( 0.000000000000000000, 0.000000000000000000, -1.000000000000000000 ) ) ;
#269 = APPLICATION_PROTOCOL_DEFINITION ( 'draft international standard', 'automotive_design', 1998, #186 ) ;
#270 = EDGE_LOOP ( 'NONE', ( #82, #133, #170, #277 ) ) ;
#271 = PLANE ( 'NONE',  #32 ) ;
#272 =( NAMED_UNIT ( * ) SI_UNIT ( $, .STERADIAN. ) SOLID_ANGLE_UNIT ( ) );
#273 = CARTESIAN_POINT ( 'NONE',  ( 147.5000000000000000, -597.5000000000000000, -11.00000000000000000 ) ) ;
#274 =( NAMED_UNIT ( * ) PLANE_ANGLE_UNIT ( ) SI_UNIT ( $, .RADIAN. ) );
#275 = CARTESIAN_POINT ( 'NONE',  ( 147.5000000000000000, -597.5000000000000000, 0.000000000000000000 ) ) ;
#276 = VERTEX_POINT ( 'NONE', #9 ) ;
#277 = ORIENTED_EDGE ( 'NONE', *, *, #232, .T. ) ;
#278 = CARTESIAN_POINT ( 'NONE',  ( -125.5000000000000000, -575.5000000000000000, -9.000000000000000000 ) ) ;
#279 = PLANE ( 'NONE',  #251 ) ;
#280 = VECTOR ( 'NONE', #88, 1000.000000000000000 ) ;
#281 = DIRECTION ( 'NONE',  ( -0.000000000000000000, 0.000000000000000000, -1.000000000000000000 ) ) ;
#282 = ADVANCED_FACE ( 'NONE', ( #300 ), #62, .F. ) ;
#283 = DIRECTION ( 'NONE',  ( -6.960677721521329943E-17, -1.000000000000000000, 0.000000000000000000 ) ) ;
#284 = VECTOR ( 'NONE', #15, 1000.000000000000000 ) ;
#285 = CARTESIAN_POINT ( 'NONE',  ( -147.5000000000000000, 597.5000000000000000, -11.00000000000000000 ) ) ;
#286 = EDGE_CURVE ( 'NONE', #53, #117, #105, .T. ) ;
#287 = VERTEX_POINT ( 'NONE', #293 ) ;
#288 = EDGE_LOOP ( 'NONE', ( #166, #68, #171, #180 ) ) ;
#289 = EDGE_LOOP ( 'NONE', ( #2, #135, #4, #219 ) ) ;
#290 = PRODUCT_DEFINITION ( 'UNKNOWN', '', #308, #29 ) ;
#291 = LINE ( 'NONE', #134, #19 ) ;
#292 = ORIENTED_EDGE ( 'NONE', *, *, #314, .F. ) ;
#293 = CARTESIAN_POINT ( 'NONE',  ( -125.5000000000000000, -575.5000000000000000, -9.000000000000000000 ) ) ;
#294 = MECHANICAL_DESIGN_GEOMETRIC_PRESENTATION_REPRESENTATION (  '', ( #343 ), #205 ) ;
#295 = CARTESIAN_POINT ( 'NONE',  ( -147.5000000000000000, 597.5000000000000000, -11.00000000000000000 ) ) ;
#296 = DIRECTION ( 'NONE',  ( 0.000000000000000000, 0.000000000000000000, 1.000000000000000000 ) ) ;
#297 = ADVANCED_FACE ( 'NONE', ( #164 ), #220, .F. ) ;
#298 = CARTESIAN_POINT ( 'NONE',  ( -147.5000000000000000, -597.5000000000000000, -11.00000000000000000 ) ) ;
#299 = APPLICATION_CONTEXT ( 'automotive_design' ) ;
#300 = FACE_OUTER_BOUND ( 'NONE', #130, .T. ) ;
#301 = CARTESIAN_POINT ( 'NONE',  ( -147.5000000000000000, -597.5000000000000000, 0.000000000000000000 ) ) ;
#302 = ADVANCED_BREP_SHAPE_REPRESENTATION ( 'HCL PL 1200', ( #154, #257 ), #136 ) ;
#303 = SURFACE_STYLE_FILL_AREA ( #247 ) ;
#304 = DIRECTION ( 'NONE',  ( 1.000000000000000000, -6.960677721521329943E-17, 0.000000000000000000 ) ) ;
#305 = SURFACE_SIDE_STYLE ('',( #303 ) ) ;
#306 = FACE_OUTER_BOUND ( 'NONE', #222, .T. ) ;
#307 = PLANE ( 'NONE',  #52 ) ;
#308 = PRODUCT_DEFINITION_FORMATION_WITH_SPECIFIED_SOURCE ( 'ANY', '', #99, .NOT_KNOWN. ) ;
#309 = LINE ( 'NONE', #193, #126 ) ;
#310 = CARTESIAN_POINT ( 'NONE',  ( -147.5000000000000000, 597.5000000000000000, 0.000000000000000000 ) ) ;
#311 = PRODUCT_DEFINITION_SHAPE ( 'NONE', 'NONE',  #290 ) ;
#312 = DIRECTION ( 'NONE',  ( -5.119267073447579120E-16, -1.000000000000000000, 0.000000000000000000 ) ) ;
#313 = DIRECTION ( 'NONE',  ( -6.960677721521329943E-17, -1.000000000000000000, 0.000000000000000000 ) ) ;
#314 = EDGE_CURVE ( 'NONE', #213, #328, #107, .T. ) ;
#315 = VECTOR ( 'NONE', #38, 1000.000000000000000 ) ;
#316 = UNCERTAINTY_MEASURE_WITH_UNIT (LENGTH_MEASURE( 1.000000000000000082E-05 ), #87, 'distance_accuracy_value', 'NONE');
#317 = CARTESIAN_POINT ( 'NONE',  ( -125.5000000000000000, 575.5000000000000000, -9.000000000000000000 ) ) ;
#318 = ORIENTED_EDGE ( 'NONE', *, *, #49, .T. ) ;
#319 = EDGE_CURVE ( 'NONE', #28, #160, #139, .T. ) ;
#320 = EDGE_LOOP ( 'NONE', ( #321, #261, #55, #318 ) ) ;
#321 = ORIENTED_EDGE ( 'NONE', *, *, #258, .T. ) ;
#322 = DIRECTION ( 'NONE',  ( 6.960677721521329943E-17, 1.000000000000000000, 0.000000000000000000 ) ) ;
#323 = VECTOR ( 'NONE', #39, 1000.000000000000000 ) ;
#324 = LINE ( 'NONE', #209, #131 ) ;
#325 = EDGE_LOOP ( 'NONE', ( #17, #210, #159, #42 ) ) ;
#326 = EDGE_CURVE ( 'NONE', #75, #208, #89, .T. ) ;
#327 = DIRECTION ( 'NONE',  ( 1.000000000000000000, 0.000000000000000000, 0.000000000000000000 ) ) ;
#328 = VERTEX_POINT ( 'NONE', #118 ) ;
#329 = CARTESIAN_POINT ( 'NONE',  ( 125.5000000000000000, 575.5000000000000000, -9.000000000000000000 ) ) ;
#330 = DIRECTION ( 'NONE',  ( -1.000000000000000000, 6.960677721521329943E-17, 0.000000000000000000 ) ) ;
#331 = CLOSED_SHELL ( 'NONE', ( #151, #337, #103, #344, #33, #297, #97, #54, #282, #218, #5 ) ) ;
#332 = DIRECTION ( 'NONE',  ( -1.000000000000000000, 6.960677721521329943E-17, 0.000000000000000000 ) ) ;
#333 = FACE_OUTER_BOUND ( 'NONE', #320, .T. ) ;
#334 = DIRECTION ( 'NONE',  ( 1.160596234338389954E-16, 1.000000000000000000, 0.000000000000000000 ) ) ;
#335 = VERTEX_POINT ( 'NONE', #111 ) ;
#336 = COLOUR_RGB ( '',0.7921568627450980005, 0.8196078431372548767, 0.9294117647058823817 ) ;
#337 = ADVANCED_FACE ( 'NONE', ( #115 ), #108, .F. ) ;
#338 = LINE ( 'NONE', #94, #280 ) ;
#339 = VECTOR ( 'NONE', #10, 1000.000000000000000 ) ;
#340 = CARTESIAN_POINT ( 'NONE',  ( -147.5000000000000000, 597.5000000000000000, -11.00000000000000000 ) ) ;
#341 = PLANE ( 'NONE',  #233 ) ;
#342 = FACE_BOUND ( 'NONE', #190, .T. ) ;
#343 = STYLED_ITEM ( 'NONE', ( #227 ), #154 ) ;
#344 = ADVANCED_FACE ( 'NONE', ( #13 ), #307, .F. ) ;
ENDSEC;
END-ISO-10303-21;
